  0
SECTION
  2
HEADER
  9
$ACADVER
  1
AC1024
  9
$ACADMAINTVER
 70
     6
  9
$DWGCODEPAGE
  3
ANSI_932
  9
$INSBASE
 10
0.0
 20
0.0
 30
0.0
  9
$EXTMIN
 10
-1773.0
 20
-1216.152689944301
 30
0.0
  9
$EXTMAX
 10
1773.0
 20
1216.152689944301
 30
0.0
  9
$LIMMIN
 10
-630.0
 20
-445.5
  9
$LIMMAX
 10
630.0
 20
445.5
  9
$ORTHOMODE
 70
     0
  9
$REGENMODE
 70
     1
  9
$FILLMODE
 70
     1
  9
$QTEXTMODE
 70
     0
  9
$MIRRTEXT
 70
     1
  9
$LTSCALE
 40
0.75
  9
$ATTMODE
 70
     1
  9
$TEXTSIZE
 40
0.2
  9
$TRACEWID
 40
0.05
  9
$TEXTSTYLE
  7
Standard
  9
$CLAYER
  8
0
  9
$CELTYPE
  6
ByLayer
  9
$CECOLOR
 62
   256
  9
$CELTSCALE
 40
1.0
  9
$DISPSILH
 70
     0
  9
$DIMSCALE
 40
1.0
  9
$DIMASZ
 40
9.000005722045898
  9
$DIMEXO
 40
1.0
  9
$DIMDLI
 40
10.0
  9
$DIMRND
 40
0.0
  9
$DIMDLE
 40
0.0
  9
$DIMEXE
 40
1.0
  9
$DIMTP
 40
0.0
  9
$DIMTM
 40
0.0
  9
$DIMTXT
 40
12.0
  9
$DIMCEN
 40
0.0
  9
$DIMTSZ
 40
0.0
  9
$DIMTOL
 70
     0
  9
$DIMLIM
 70
     0
  9
$DIMTIH
 70
     0
  9
$DIMTOH
 70
     0
  9
$DIMSE1
 70
     0
  9
$DIMSE2
 70
     0
  9
$DIMTAD
 70
     1
  9
$DIMZIN
 70
     8
  9
$DIMBLK
  1

  9
$DIMASO
 70
     1
  9
$DIMSHO
 70
     1
  9
$DIMPOST
  1

  9
$DIMAPOST
  1

  9
$DIMALT
 70
     0
  9
$DIMALTD
 70
     2
  9
$DIMALTF
 40
0.0393700787401575
  9
$DIMLFAC
 40
1.0
  9
$DIMTOFL
 70
     0
  9
$DIMTVP
 40
0.0
  9
$DIMTIX
 70
     0
  9
$DIMSOXD
 70
     0
  9
$DIMSAH
 70
     0
  9
$DIMBLK1
  1

  9
$DIMBLK2
  1

  9
$DIMSTYLE
  2
Standard
  9
$DIMCLRD
 70
     0
  9
$DIMCLRE
 70
     0
  9
$DIMCLRT
 70
     0
  9
$DIMTFAC
 40
0.65
  9
$DIMGAP
 40
0.09
  9
$DIMJUST
 70
     0
  9
$DIMSD1
 70
     0
  9
$DIMSD2
 70
     0
  9
$DIMTOLJ
 70
     0
  9
$DIMTZIN
 70
     0
  9
$DIMALTZ
 70
     0
  9
$DIMALTTZ
 70
     0
  9
$DIMUPT
 70
     0
  9
$DIMDEC
 70
     1
  9
$DIMTDEC
 70
     1
  9
$DIMALTU
 70
     2
  9
$DIMALTTD
 70
     1
  9
$DIMTXSTY
  7
Standard
  9
$DIMAUNIT
 70
     0
  9
$DIMADEC
 70
     1
  9
$DIMALTRND
 40
0.0
  9
$DIMAZIN
 70
     2
  9
$DIMDSEP
 70
    46
  9
$DIMATFIT
 70
     3
  9
$DIMFRAC
 70
     0
  9
$DIMLDRBLK
  1

  9
$DIMLUNIT
 70
     2
  9
$DIMLWD
 70
    -2
  9
$DIMLWE
 70
    -2
  9
$DIMTMOVE
 70
     0
  9
$DIMFXL
 40
1.0
  9
$DIMFXLON
 70
     0
  9
$DIMJOGANG
 40
0.7853981633974483
  9
$DIMTFILL
 70
     0
  9
$DIMTFILLCLR
 70
     0
  9
$DIMARCSYM
 70
     1
  9
$DIMLTYPE
  6

  9
$DIMLTEX1
  6

  9
$DIMLTEX2
  6

  9
$DIMTXTDIRECTION
 70
     0
  9
$LUNITS
 70
     2
  9
$LUPREC
 70
     4
  9
$SKETCHINC
 40
0.1
  9
$FILLETRAD
 40
0.5
  9
$AUNITS
 70
     0
  9
$AUPREC
 70
     0
  9
$MENU
  1
.
  9
$ELEVATION
 40
0.0
  9
$PELEVATION
 40
0.0
  9
$THICKNESS
 40
0.0
  9
$LIMCHECK
 70
     0
  9
$CHAMFERA
 40
0.0
  9
$CHAMFERB
 40
0.0
  9
$CHAMFERC
 40
0.0
  9
$CHAMFERD
 40
0.0
  9
$SKPOLY
 70
     0
  9
$TDCREATE
 40
2459852.375367755
  9
$TDUCREATE
 40
2459852.000367755
  9
$TDUPDATE
 40
2459852.375368484
  9
$TDUUPDATE
 40
2459852.000368484
  9
$TDINDWG
 40
0.0000000116
  9
$TDUSRTIMER
 40
0.0000000116
  9
$USRTIMER
 70
     1
  9
$ANGBASE
 50
0.0
  9
$ANGDIR
 70
     0
  9
$PDMODE
 70
     0
  9
$PDSIZE
 40
1.0
  9
$PLINEWID
 40
0.0
  9
$SPLFRAME
 70
     0
  9
$SPLINETYPE
 70
     6
  9
$SPLINESEGS
 70
     8
  9
$HANDSEED
  5
477
  9
$SURFTAB1
 70
     6
  9
$SURFTAB2
 70
     6
  9
$SURFTYPE
 70
     6
  9
$SURFU
 70
     6
  9
$SURFV
 70
     6
  9
$UCSBASE
  2

  9
$UCSNAME
  2

  9
$UCSORG
 10
0.0
 20
0.0
 30
0.0
  9
$UCSXDIR
 10
1.0
 20
0.0
 30
0.0
  9
$UCSYDIR
 10
0.0
 20
1.0
 30
0.0
  9
$UCSORTHOREF
  2

  9
$UCSORTHOVIEW
 70
     0
  9
$UCSORGTOP
 10
0.0
 20
0.0
 30
0.0
  9
$UCSORGBOTTOM
 10
0.0
 20
0.0
 30
0.0
  9
$UCSORGLEFT
 10
0.0
 20
0.0
 30
0.0
  9
$UCSORGRIGHT
 10
0.0
 20
0.0
 30
0.0
  9
$UCSORGFRONT
 10
0.0
 20
0.0
 30
0.0
  9
$UCSORGBACK
 10
0.0
 20
0.0
 30
0.0
  9
$PUCSBASE
  2

  9
$PUCSNAME
  2

  9
$PUCSORG
 10
0.0
 20
0.0
 30
0.0
  9
$PUCSXDIR
 10
1.0
 20
0.0
 30
0.0
  9
$PUCSYDIR
 10
0.0
 20
1.0
 30
0.0
  9
$PUCSORTHOREF
  2

  9
$PUCSORTHOVIEW
 70
     0
  9
$PUCSORGTOP
 10
0.0
 20
0.0
 30
0.0
  9
$PUCSORGBOTTOM
 10
0.0
 20
0.0
 30
0.0
  9
$PUCSORGLEFT
 10
0.0
 20
0.0
 30
0.0
  9
$PUCSORGRIGHT
 10
0.0
 20
0.0
 30
0.0
  9
$PUCSORGFRONT
 10
0.0
 20
0.0
 30
0.0
  9
$PUCSORGBACK
 10
0.0
 20
0.0
 30
0.0
  9
$USERI1
 70
     0
  9
$USERI2
 70
     0
  9
$USERI3
 70
     0
  9
$USERI4
 70
     0
  9
$USERI5
 70
     0
  9
$USERR1
 40
0.0
  9
$USERR2
 40
0.0
  9
$USERR3
 40
0.0
  9
$USERR4
 40
0.0
  9
$USERR5
 40
0.0
  9
$WORLDVIEW
 70
     1
  9
$SHADEDGE
 70
     3
  9
$SHADEDIF
 70
    70
  9
$TILEMODE
 70
     1
  9
$MAXACTVP
 70
    64
  9
$PINSBASE
 10
0.0
 20
0.0
 30
0.0
  9
$PLIMCHECK
 70
     0
  9
$PEXTMIN
 10
1.000000000000000E+20
 20
1.000000000000000E+20
 30
1.000000000000000E+20
  9
$PEXTMAX
 10
-1.000000000000000E+20
 20
-1.000000000000000E+20
 30
-1.000000000000000E+20
  9
$PLIMMIN
 10
0.0
 20
0.0
  9
$PLIMMAX
 10
12.0
 20
9.0
  9
$UNITMODE
 70
     0
  9
$VISRETAIN
 70
     0
  9
$PLINEGEN
 70
     1
  9
$PSLTSCALE
 70
     0
  9
$TREEDEPTH
 70
  3020
  9
$CMLSTYLE
  2
Standard
  9
$CMLJUST
 70
     0
  9
$CMLSCALE
 40
1.0
  9
$PROXYGRAPHICS
 70
     0
  9
$MEASUREMENT
 70
     1
  9
$CELWEIGHT
370
    -1
  9
$ENDCAPS
280
     0
  9
$JOINSTYLE
280
     0
  9
$LWDISPLAY
290
     1
  9
$INSUNITS
 70
     4
  9
$HYPERLINKBASE
  1

  9
$STYLESHEET
  1

  9
$XEDIT
290
     1
  9
$CEPSNTYPE
380
     0
  9
$PSTYLEMODE
290
     1
  9
$FINGERPRINTGUID
  2
{d6677bcf-e485-4e88-a5c8-082f0b57d172}
  9
$VERSIONGUID
  2
{FAEB1C32-E019-11D5-929B-00C0DF256EC4}
  9
$EXTNAMES
290
     1
  9
$PSVPSCALE
 40
0.0
  9
$OLESTARTUP
290
     0
  9
$SORTENTS
280
   127
  9
$INDEXCTL
280
     0
  9
$HIDETEXT
280
     1
  9
$XCLIPFRAME
280
     2
  9
$HALOGAP
280
     0
  9
$OBSCOLOR
 70
   257
  9
$OBSLTYPE
280
     0
  9
$INTERSECTIONDISPLAY
280
     0
  9
$INTERSECTIONCOLOR
 70
   257
  9
$DIMASSOC
280
     2
  9
$PROJECTNAME
  1

  9
$CAMERADISPLAY
290
     0
  9
$LENSLENGTH
 40
50.0
  9
$CAMERAHEIGHT
 40
0.0
  9
$STEPSPERSEC
 40
2.0
  9
$STEPSIZE
 40
6.0
  9
$3DDWFPREC
 40
2.0
  9
$PSOLWIDTH
 40
0.25
  9
$PSOLHEIGHT
 40
4.0
  9
$LOFTANG1
 40
1.570796326794897
  9
$LOFTANG2
 40
1.570796326794897
  9
$LOFTMAG1
 40
0.0
  9
$LOFTMAG2
 40
0.0
  9
$LOFTPARAM
 70
     7
  9
$LOFTNORMALS
280
     1
  9
$LATITUDE
 40
37.795
  9
$LONGITUDE
 40
-122.394
  9
$NORTHDIRECTION
 40
0.0
  9
$TIMEZONE
 70
 -8000
  9
$LIGHTGLYPHDISPLAY
280
     1
  9
$TILEMODELIGHTSYNCH
280
     1
  9
$CMATERIAL
347
44
  9
$SOLIDHIST
280
     0
  9
$SHOWHIST
280
     1
  9
$DWFFRAME
280
     2
  9
$DGNFRAME
280
     2
  9
$REALWORLDSCALE
290
     1
  9
$INTERFERECOLOR
 62
   256
  9
$CSHADOW
280
     0
  9
$SHADOWPLANELOCATION
 40
0.0
  0
ENDSEC
  0
SECTION
  2
CLASSES
  0
CLASS
  1
ACDBDICTIONARYWDFLT
  2
AcDbDictionaryWithDefault
  3
ObjectDBX Classes
 90
        0
 91
        3
280
     0
281
     0
  0
CLASS
  1
VISUALSTYLE
  2
AcDbVisualStyle
  3
ObjectDBX Classes
 90
     4095
 91
        3
280
     0
281
     0
  0
CLASS
  1
MATERIAL
  2
AcDbMaterial
  3
ObjectDBX Classes
 90
     1153
 91
        3
280
     0
281
     0
  0
CLASS
  1
SCALE
  2
AcDbScale
  3
ObjectDBX Classes
 90
     1153
 91
        3
280
     0
281
     0
  0
CLASS
  1
TABLESTYLE
  2
AcDbTableStyle
  3
ObjectDBX Classes
 90
     4095
 91
        3
280
     0
281
     0
  0
CLASS
  1
MLEADERSTYLE
  2
AcDbMLeaderStyle
  3
ACDB_MLEADERSTYLE_CLASS
 90
     4095
 91
        3
280
     0
281
     0
  0
CLASS
  1
SUN
  2
AcDbSun
  3
SCENEOE
 90
     1153
 91
        3
280
     0
281
     0
  0
CLASS
  1
DICTIONARYVAR
  2
AcDbDictionaryVar
  3
ObjectDBX Classes
 90
        0
 91
        3
280
     0
281
     0
  0
CLASS
  1
CELLSTYLEMAP
  2
AcDbCellStyleMap
  3
ObjectDBX Classes
 90
     1152
 91
        3
280
     0
281
     0
  0
ENDSEC
  0
SECTION
  2
TABLES
  0
TABLE
  2
VPORT
  5
8
330
0
100
AcDbSymbolTable
 70
     1
  0
VPORT
  5
29
330
8
100
AcDbSymbolTableRecord
100
AcDbViewportTableRecord
  2
*Active
 70
     0
 10
0.0
 20
0.0
 11
1.0
 21
1.0
 12
0.0
 22
0.0
 13
0.0
 23
0.0
 14
0.5
 24
0.5
 15
0.5
 25
0.5
 16
0.0
 26
0.0
 36
1.0
 17
-0.0000000000000036
 27
0.0
 37
0.0
 40
826.9838291621245
 41
1.45787614882569
 42
50.0
 43
0.0
 44
0.0
 50
0.0
 51
0.0
 71
     0
 72
  1000
 73
     1
 74
     1
 75
     0
 76
     0
 77
     0
 78
     0
281
     0
 65
     1
110
0.0
120
0.0
130
0.0
111
1.0
121
0.0
131
0.0
112
0.0
122
1.0
132
0.0
 79
     0
146
0.0
348
2F
 60
     3
 61
     5
292
     1
282
     1
141
0.0
142
0.0
 63
   250
361
6D
  0
ENDTAB
  0
TABLE
  2
LTYPE
  5
5
330
0
100
AcDbSymbolTable
 70
    67
  0
LTYPE
  5
14
330
5
100
AcDbSymbolTableRecord
100
AcDbLinetypeTableRecord
  2
ByBlock
 70
     0
  3

 72
    65
 73
     0
 40
0.0
  0
LTYPE
  5
15
330
5
100
AcDbSymbolTableRecord
100
AcDbLinetypeTableRecord
  2
ByLayer
 70
     0
  3

 72
    65
 73
     0
 40
0.0
  0
LTYPE
  5
16
330
5
100
AcDbSymbolTableRecord
100
AcDbLinetypeTableRecord
  2
Continuous
 70
     0
  3
Solid line
 72
    65
 73
     0
 40
0.0
  0
LTYPE
  5
6F
330
5
100
AcDbSymbolTableRecord
100
AcDbLinetypeTableRecord
  2
HIDDENX2
 70
     0
  3
Hidden (2x) ____ ____ ____ ____ ____ ____ ____ 
 72
    65
 73
     2
 40
19.05
 49
12.7
 74
     0
 49
-6.35
 74
     0
  0
LTYPE
  5
70
330
5
100
AcDbSymbolTableRecord
100
AcDbLinetypeTableRecord
  2
HIDDEN
 70
     0
  3
Hidden __ __ __ __ __ __ __ __ __ __ __ __ __ __
 72
    65
 73
     2
 40
9.524999999999999
 49
6.35
 74
     0
 49
-3.175
 74
     0
  0
LTYPE
  5
71
330
5
100
AcDbSymbolTableRecord
100
AcDbLinetypeTableRecord
  2
HIDDEN2
 70
     0
  3
Hidden (.5x) _ _ _ _ _ _ _ _ _ _ _ _ _ _ _ _ _ 
 72
    65
 73
     2
 40
4.762499999999999
 49
3.175
 74
     0
 49
-1.5875
 74
     0
  0
LTYPE
  5
72
330
5
100
AcDbSymbolTableRecord
100
AcDbLinetypeTableRecord
  2
DASHED
 70
     0
  3
Dashed __ __ __ __ __ __ __ __ __ __ __ __ __ _
 72
    65
 73
     2
 40
19.05
 49
12.7
 74
     0
 49
-6.35
 74
     0
  0
LTYPE
  5
73
330
5
100
AcDbSymbolTableRecord
100
AcDbLinetypeTableRecord
  2
DASHED2
 70
     0
  3
Dashed (.5x) _ _ _ _ _ _ _ _ _ _ _ _ _ _ _ _ _ 
 72
    65
 73
     2
 40
9.524999999999999
 49
6.35
 74
     0
 49
-3.175
 74
     0
  0
LTYPE
  5
74
330
5
100
AcDbSymbolTableRecord
100
AcDbLinetypeTableRecord
  2
DASHEDX2
 70
     0
  3
Dashed (2x) ____  ____  ____  ____  ____  ___
 72
    65
 73
     2
 40
38.09999999999999
 49
25.4
 74
     0
 49
-12.7
 74
     0
  0
LTYPE
  5
75
330
5
100
AcDbSymbolTableRecord
100
AcDbLinetypeTableRecord
  2
DOTX2
 70
     0
  3
Dot (2x) .  .  .  .  .  .  .  .  .  .  .  .  .  .
 72
    65
 73
     2
 40
12.7
 49
0.0
 74
     0
 49
-12.7
 74
     0
  0
LTYPE
  5
76
330
5
100
AcDbSymbolTableRecord
100
AcDbLinetypeTableRecord
  2
DOT
 70
     0
  3
Dot . . . . . . . . . . . . . . . . . . . . . . . .
 72
    65
 73
     2
 40
6.35
 49
0.0
 74
     0
 49
-6.35
 74
     0
  0
LTYPE
  5
77
330
5
100
AcDbSymbolTableRecord
100
AcDbLinetypeTableRecord
  2
DOT2
 70
     0
  3
Dot (.5x) ........................................
 72
    65
 73
     2
 40
3.175
 49
0.0
 74
     0
 49
-3.175
 74
     0
  0
LTYPE
  5
78
330
5
100
AcDbSymbolTableRecord
100
AcDbLinetypeTableRecord
  2
CENTERX2
 70
     0
  3
Center (2x) ________  __  ________  __  _____
 72
    65
 73
     4
 40
101.6
 49
63.5
 74
     0
 49
-12.7
 74
     0
 49
12.7
 74
     0
 49
-12.7
 74
     0
  0
LTYPE
  5
79
330
5
100
AcDbSymbolTableRecord
100
AcDbLinetypeTableRecord
  2
CENTER
 70
     0
  3
Center ____ _ ____ _ ____ _ ____ _ ____ _ ____
 72
    65
 73
     4
 40
50.8
 49
31.75
 74
     0
 49
-6.35
 74
     0
 49
6.35
 74
     0
 49
-6.35
 74
     0
  0
LTYPE
  5
7A
330
5
100
AcDbSymbolTableRecord
100
AcDbLinetypeTableRecord
  2
CENTER2
 70
     0
  3
Center (.5x) ___ _ ___ _ ___ _ ___ _ ___ _ ___
 72
    65
 73
     4
 40
28.575
 49
19.05
 74
     0
 49
-3.175
 74
     0
 49
3.175
 74
     0
 49
-3.175
 74
     0
  0
LTYPE
  5
7B
330
5
100
AcDbSymbolTableRecord
100
AcDbLinetypeTableRecord
  2
DASHDOTX2
 70
     0
  3
Dash dot (2x) ____  .  ____  .  ____  .  ___
 72
    65
 73
     4
 40
50.8
 49
25.4
 74
     0
 49
-12.7
 74
     0
 49
0.0
 74
     0
 49
-12.7
 74
     0
  0
LTYPE
  5
7C
330
5
100
AcDbSymbolTableRecord
100
AcDbLinetypeTableRecord
  2
DASHDOT
 70
     0
  3
Dash dot __ . __ . __ . __ . __ . __ . __ . __
 72
    65
 73
     4
 40
25.4
 49
12.7
 74
     0
 49
-6.35
 74
     0
 49
0.0
 74
     0
 49
-6.35
 74
     0
  0
LTYPE
  5
7D
330
5
100
AcDbSymbolTableRecord
100
AcDbLinetypeTableRecord
  2
DASHDOT2
 70
     0
  3
Dash dot (.5x) _._._._._._._._._._._._._._._.
 72
    65
 73
     4
 40
12.7
 49
6.35
 74
     0
 49
-3.175
 74
     0
 49
0.0
 74
     0
 49
-3.175
 74
     0
  0
LTYPE
  5
7E
330
5
100
AcDbSymbolTableRecord
100
AcDbLinetypeTableRecord
  2
DIVIDEX2
 70
     0
  3
Divide (2x) ________  .  .  ________  .  .  _
 72
    65
 73
     6
 40
63.5
 49
25.4
 74
     0
 49
-12.7
 74
     0
 49
0.0
 74
     0
 49
-12.7
 74
     0
 49
0.0
 74
     0
 49
-12.7
 74
     0
  0
LTYPE
  5
7F
330
5
100
AcDbSymbolTableRecord
100
AcDbLinetypeTableRecord
  2
DIVIDE
 70
     0
  3
Divide ____ . . ____ . . ____ . . ____ . . ____
 72
    65
 73
     6
 40
31.75
 49
12.7
 74
     0
 49
-6.35
 74
     0
 49
0.0
 74
     0
 49
-6.35
 74
     0
 49
0.0
 74
     0
 49
-6.35
 74
     0
  0
LTYPE
  5
80
330
5
100
AcDbSymbolTableRecord
100
AcDbLinetypeTableRecord
  2
DIVIDE2
 70
     0
  3
Divide (.5x) __..__..__..__..__..__..__..__.._
 72
    65
 73
     6
 40
15.875
 49
6.35
 74
     0
 49
-3.175
 74
     0
 49
0.0
 74
     0
 49
-3.175
 74
     0
 49
0.0
 74
     0
 49
-3.175
 74
     0
  0
LTYPE
  5
81
330
5
100
AcDbSymbolTableRecord
100
AcDbLinetypeTableRecord
  2
BORDERX2
 70
     0
  3
Border (2x) ____  ____  .  ____  ____  .  ___
 72
    65
 73
     6
 40
88.89999999999999
 49
25.4
 74
     0
 49
-12.7
 74
     0
 49
25.4
 74
     0
 49
-12.7
 74
     0
 49
0.0
 74
     0
 49
-12.7
 74
     0
  0
LTYPE
  5
82
330
5
100
AcDbSymbolTableRecord
100
AcDbLinetypeTableRecord
  2
BORDER
 70
     0
  3
Border __ __ . __ __ . __ __ . __ __ . __ __ .
 72
    65
 73
     6
 40
44.45
 49
12.7
 74
     0
 49
-6.35
 74
     0
 49
12.7
 74
     0
 49
-6.35
 74
     0
 49
0.0
 74
     0
 49
-6.35
 74
     0
  0
LTYPE
  5
83
330
5
100
AcDbSymbolTableRecord
100
AcDbLinetypeTableRecord
  2
BORDER2
 70
     0
  3
Border (.5x) __.__.__.__.__.__.__.__.__.__.__.
 72
    65
 73
     6
 40
22.225
 49
6.35
 74
     0
 49
-3.175
 74
     0
 49
6.35
 74
     0
 49
-3.175
 74
     0
 49
0.0
 74
     0
 49
-3.175
 74
     0
  0
LTYPE
  5
84
330
5
100
AcDbSymbolTableRecord
100
AcDbLinetypeTableRecord
  2
PHANTOMX2
 70
     0
  3
Phantom (2x) ____________    ____    ____   _
 72
    65
 73
     6
 40
127.0
 49
63.5
 74
     0
 49
-12.7
 74
     0
 49
12.7
 74
     0
 49
-12.7
 74
     0
 49
12.7
 74
     0
 49
-12.7
 74
     0
  0
LTYPE
  5
85
330
5
100
AcDbSymbolTableRecord
100
AcDbLinetypeTableRecord
  2
PHANTOM
 70
     0
  3
Phantom ______  __  __  ______  __  __  ______ 
 72
    65
 73
     6
 40
63.5
 49
31.75
 74
     0
 49
-6.35
 74
     0
 49
6.35
 74
     0
 49
-6.35
 74
     0
 49
6.35
 74
     0
 49
-6.35
 74
     0
  0
LTYPE
  5
86
330
5
100
AcDbSymbolTableRecord
100
AcDbLinetypeTableRecord
  2
PHANTOM2
 70
     0
  3
Phantom (.5x) ___ _ _ ___ _ _ ___ _ _ ___ _ _
 72
    65
 73
     6
 40
31.75
 49
15.875
 74
     0
 49
-3.175
 74
     0
 49
3.175
 74
     0
 49
-3.175
 74
     0
 49
3.175
 74
     0
 49
-3.175
 74
     0
  0
LTYPE
  5
87
330
5
100
AcDbSymbolTableRecord
100
AcDbLinetypeTableRecord
  2
ACAD_ISO06W100
 70
     0
  3
ISO long-dash triple-dot ____ ... ____ ... ____
 72
    65
 73
     8
 40
36.0
 49
24.0
 74
     0
 49
-3.0
 74
     0
 49
0.0
 74
     0
 49
-3.0
 74
     0
 49
0.0
 74
     0
 49
-3.0
 74
     0
 49
0.0
 74
     0
 49
-3.0
 74
     0
  0
LTYPE
  5
88
330
5
100
AcDbSymbolTableRecord
100
AcDbLinetypeTableRecord
  2
ACAD_ISO13W100
 70
     0
  3
ISO double-dash double-dot __ __ . . __ __ . . _
 72
    65
 73
     8
 40
36.0
 49
12.0
 74
     0
 49
-3.0
 74
     0
 49
12.0
 74
     0
 49
-3.0
 74
     0
 49
0.0
 74
     0
 49
-3.0
 74
     0
 49
0.0
 74
     0
 49
-3.0
 74
     0
  0
LTYPE
  5
89
330
5
100
AcDbSymbolTableRecord
100
AcDbLinetypeTableRecord
  2
ACAD_ISO14W100
 70
     0
  3
ISO dash triple-dot __ . . . __ . . . __ . . . _
 72
    65
 73
     8
 40
24.0
 49
12.0
 74
     0
 49
-3.0
 74
     0
 49
0.0
 74
     0
 49
-3.0
 74
     0
 49
0.0
 74
     0
 49
-3.0
 74
     0
 49
0.0
 74
     0
 49
-3.0
 74
     0
  0
LTYPE
  5
8A
330
5
100
AcDbSymbolTableRecord
100
AcDbLinetypeTableRecord
  2
ACAD_ISO02W100
 70
     0
  3
ISO dash __ __ __ __ __ __ __ __ __ __ __ __ __
 72
    65
 73
     2
 40
15.0
 49
12.0
 74
     0
 49
-3.0
 74
     0
  0
LTYPE
  5
8B
330
5
100
AcDbSymbolTableRecord
100
AcDbLinetypeTableRecord
  2
ACAD_ISO03W100
 70
     0
  3
ISO dash space __    __    __    __    __    __
 72
    65
 73
     2
 40
30.0
 49
12.0
 74
     0
 49
-18.0
 74
     0
  0
LTYPE
  5
8C
330
5
100
AcDbSymbolTableRecord
100
AcDbLinetypeTableRecord
  2
ACAD_ISO04W100
 70
     0
  3
ISO long-dash dot ____ . ____ . ____ . ____ . _
 72
    65
 73
     4
 40
30.0
 49
24.0
 74
     0
 49
-3.0
 74
     0
 49
0.0
 74
     0
 49
-3.0
 74
     0
  0
LTYPE
  5
8D
330
5
100
AcDbSymbolTableRecord
100
AcDbLinetypeTableRecord
  2
ACAD_ISO05W100
 70
     0
  3
ISO long-dash double-dot ____ .. ____ .. ____ . 
 72
    65
 73
     6
 40
33.0
 49
24.0
 74
     0
 49
-3.0
 74
     0
 49
0.0
 74
     0
 49
-3.0
 74
     0
 49
0.0
 74
     0
 49
-3.0
 74
     0
  0
LTYPE
  5
8E
330
5
100
AcDbSymbolTableRecord
100
AcDbLinetypeTableRecord
  2
ACAD_ISO07W100
 70
     0
  3
ISO dot . . . . . . . . . . . . . . . . . . . . 
 72
    65
 73
     2
 40
3.0
 49
0.0
 74
     0
 49
-3.0
 74
     0
  0
LTYPE
  5
8F
330
5
100
AcDbSymbolTableRecord
100
AcDbLinetypeTableRecord
  2
ACAD_ISO08W100
 70
     0
  3
ISO long-dash short-dash ____ __ ____ __ ____ _
 72
    65
 73
     4
 40
36.0
 49
24.0
 74
     0
 49
-3.0
 74
     0
 49
6.0
 74
     0
 49
-3.0
 74
     0
  0
LTYPE
  5
90
330
5
100
AcDbSymbolTableRecord
100
AcDbLinetypeTableRecord
  2
ACAD_ISO09W100
 70
     0
  3
ISO long-dash double-short-dash ____ __ __ ____
 72
    65
 73
     6
 40
45.0
 49
24.0
 74
     0
 49
-3.0
 74
     0
 49
6.0
 74
     0
 49
-3.0
 74
     0
 49
6.0
 74
     0
 49
-3.0
 74
     0
  0
LTYPE
  5
91
330
5
100
AcDbSymbolTableRecord
100
AcDbLinetypeTableRecord
  2
ACAD_ISO10W100
 70
     0
  3
ISO dash dot __ . __ . __ . __ . __ . __ . __ . 
 72
    65
 73
     4
 40
18.0
 49
12.0
 74
     0
 49
-3.0
 74
     0
 49
0.0
 74
     0
 49
-3.0
 74
     0
  0
LTYPE
  5
92
330
5
100
AcDbSymbolTableRecord
100
AcDbLinetypeTableRecord
  2
ACAD_ISO11W100
 70
     0
  3
ISO double-dash dot __ __ . __ __ . __ __ . __ _
 72
    65
 73
     6
 40
33.0
 49
12.0
 74
     0
 49
-3.0
 74
     0
 49
12.0
 74
     0
 49
-3.0
 74
     0
 49
0.0
 74
     0
 49
-3.0
 74
     0
  0
LTYPE
  5
93
330
5
100
AcDbSymbolTableRecord
100
AcDbLinetypeTableRecord
  2
ACAD_ISO12W100
 70
     0
  3
ISO dash double-dot __ . . __ . . __ . . __ . . 
 72
    65
 73
     6
 40
21.0
 49
12.0
 74
     0
 49
-3.0
 74
     0
 49
0.0
 74
     0
 49
-3.0
 74
     0
 49
0.0
 74
     0
 49
-3.0
 74
     0
  0
LTYPE
  5
94
330
5
100
AcDbSymbolTableRecord
100
AcDbLinetypeTableRecord
  2
ACAD_ISO15W100
 70
     0
  3
ISO double-dash triple-dot __ __ . . . __ __ . .
 72
    65
 73
    10
 40
39.0
 49
12.0
 74
     0
 49
-3.0
 74
     0
 49
12.0
 74
     0
 49
-3.0
 74
     0
 49
0.0
 74
     0
 49
-3.0
 74
     0
 49
0.0
 74
     0
 49
-3.0
 74
     0
 49
0.0
 74
     0
 49
-3.0
 74
     0
  0
LTYPE
  5
95
330
5
100
AcDbSymbolTableRecord
100
AcDbLinetypeTableRecord
  2
JIS_02_0.7
 70
     0
  3
HIDDEN0.75 _ _ _ _ _ _ _ _ _ _ _ _ _ _ _ _ _ 
 72
    65
 73
     2
 40
1.35
 49
0.75
 74
     0
 49
-0.6
 74
     0
  0
LTYPE
  5
96
330
5
100
AcDbSymbolTableRecord
100
AcDbLinetypeTableRecord
  2
JIS_02_1.0
 70
     0
  3
HIDDEN01 _ _ _ _ _ _ _ _ _ _ _ _ _ _ _ _ _ 
 72
    65
 73
     2
 40
2.0
 49
1.0
 74
     0
 49
-1.0
 74
     0
  0
LTYPE
  5
97
330
5
100
AcDbSymbolTableRecord
100
AcDbLinetypeTableRecord
  2
JIS_02_1.2
 70
     0
  3
HIDDEN01.25  _ _ _ _ _ _ _ _ _ _ _ _ _ _ _ _ _ 
 72
    65
 73
     2
 40
2.5
 49
1.25
 74
     0
 49
-1.25
 74
     0
  0
LTYPE
  5
98
330
5
100
AcDbSymbolTableRecord
100
AcDbLinetypeTableRecord
  2
JIS_02_2.0
 70
     0
  3
HIDDEN02 __ __ __ __ __ __ __ __ __ __ __ 
 72
    65
 73
     2
 40
3.0
 49
2.0
 74
     0
 49
-1.0
 74
     0
  0
LTYPE
  5
99
330
5
100
AcDbSymbolTableRecord
100
AcDbLinetypeTableRecord
  2
JIS_02_4.0
 70
     0
  3
HIDDEN04 ____ ____ ____ ____ ____ ____ ____ 
 72
    65
 73
     2
 40
5.5
 49
4.0
 74
     0
 49
-1.5
 74
     0
  0
LTYPE
  5
9A
330
5
100
AcDbSymbolTableRecord
100
AcDbLinetypeTableRecord
  2
JIS_08_11
 70
     0
  3
1SASEN11 ___ _ ___ _ ___ _ ___ _ ___ _ ___
 72
    65
 73
     4
 40
12.8
 49
11.0
 74
     0
 49
-0.6
 74
     0
 49
0.6
 74
     0
 49
-0.6
 74
     0
  0
LTYPE
  5
9B
330
5
100
AcDbSymbolTableRecord
100
AcDbLinetypeTableRecord
  2
JIS_08_15
 70
     0
  3
1SASEN15 ____ _ ____ _ ____ _ ____ _ ____ 
 72
    65
 73
     4
 40
17.25
 49
15.0
 74
     0
 49
-0.75
 74
     0
 49
0.75
 74
     0
 49
-0.75
 74
     0
  0
LTYPE
  5
9C
330
5
100
AcDbSymbolTableRecord
100
AcDbLinetypeTableRecord
  2
JIS_08_25
 70
     0
  3
1SASEN25 ________  __  ________  __  _____
 72
    65
 73
     4
 40
28.0
 49
25.0
 74
     0
 49
-1.125
 74
     0
 49
0.75
 74
     0
 49
-1.125
 74
     0
  0
LTYPE
  5
9D
330
5
100
AcDbSymbolTableRecord
100
AcDbLinetypeTableRecord
  2
JIS_08_37
 70
     0
  3
1SASEN37 ________  __  ________  __  _____
 72
    65
 73
     4
 40
40.5
 49
37.5
 74
     0
 49
-1.125
 74
     0
 49
0.75
 74
     0
 49
-1.125
 74
     0
  0
LTYPE
  5
9E
330
5
100
AcDbSymbolTableRecord
100
AcDbLinetypeTableRecord
  2
JIS_08_50
 70
     0
  3
1SASEN50 _______________  __  ____________
 72
    65
 73
     4
 40
53.0
 49
50.0
 74
     0
 49
-1.125
 74
     0
 49
0.75
 74
     0
 49
-1.125
 74
     0
  0
LTYPE
  5
9F
330
5
100
AcDbSymbolTableRecord
100
AcDbLinetypeTableRecord
  2
JIS_09_08
 70
     0
  3
2SASEN8 __ _ _ __ _ _ __ _ _ __ _ _ __ _ _ 
 72
    65
 73
     6
 40
10.75
 49
8.0
 74
     0
 49
-0.55
 74
     0
 49
0.55
 74
     0
 49
-0.55
 74
     0
 49
0.55
 74
     0
 49
-0.55
 74
     0
  0
LTYPE
  5
A0
330
5
100
AcDbSymbolTableRecord
100
AcDbLinetypeTableRecord
  2
JIS_09_15
 70
     0
  3
2SASEN15 ___ _ _ ___ _ _ ___ _ _ ___ _ _ ___ 
 72
    65
 73
     6
 40
18.9
 49
15.0
 74
     0
 49
-0.9
 74
     0
 49
0.6
 74
     0
 49
-0.9
 74
     0
 49
0.6
 74
     0
 49
-0.9
 74
     0
  0
LTYPE
  5
A1
330
5
100
AcDbSymbolTableRecord
100
AcDbLinetypeTableRecord
  2
JIS_09_29
 70
     0
  3
2SASEN29 ______　__  __  ______　__  __  ___
 72
    65
 73
     6
 40
34.0
 49
29.0
 74
     0
 49
-1.2
 74
     0
 49
0.7
 74
     0
 49
-1.2
 74
     0
 49
0.7
 74
     0
 49
-1.2
 74
     0
  0
LTYPE
  5
A2
330
5
100
AcDbSymbolTableRecord
100
AcDbLinetypeTableRecord
  2
JIS_09_50
 70
     0
  3
2SASEN50 ____________　__  __  _____________
 72
    65
 73
     6
 40
55.0
 49
50.0
 74
     0
 49
-1.2
 74
     0
 49
0.7
 74
     0
 49
-1.2
 74
     0
 49
0.7
 74
     0
 49
-1.2
 74
     0
  0
LTYPE
  5
A3
330
5
100
AcDbSymbolTableRecord
100
AcDbLinetypeTableRecord
  2
SXF_破線
 70
     0
  3
02 dashed -- -- -- -- -- --
 72
    65
 73
     2
 40
7.5
 49
6.0
 74
     0
 49
-1.5
 74
     0
  0
LTYPE
  5
A4
330
5
100
AcDbSymbolTableRecord
100
AcDbLinetypeTableRecord
  2
SXF_跳び破線
 70
     0
  3
03 dashed_spaced --  --  --  --
 72
    65
 73
     2
 40
12.0
 49
6.0
 74
     0
 49
-6.0
 74
     0
  0
LTYPE
  5
A5
330
5
100
AcDbSymbolTableRecord
100
AcDbLinetypeTableRecord
  2
SXF_一点長鎖線
 70
     0
  3
04 long_dashed_dotted ---- . ---- . ----
 72
    65
 73
     4
 40
15.25
 49
12.0
 74
     0
 49
-1.5
 74
     0
 49
0.25
 74
     0
 49
-1.5
 74
     0
  0
LTYPE
  5
A6
330
5
100
AcDbSymbolTableRecord
100
AcDbLinetypeTableRecord
  2
SXF_二点長鎖線
 70
     0
  3
05 long_dashed_double-dotted ---- . . ---- 
 72
    65
 73
     6
 40
17.0
 49
12.0
 74
     0
 49
-1.5
 74
     0
 49
0.25
 74
     0
 49
-1.5
 74
     0
 49
0.25
 74
     0
 49
-1.5
 74
     0
  0
LTYPE
  5
A7
330
5
100
AcDbSymbolTableRecord
100
AcDbLinetypeTableRecord
  2
SXF_三点長鎖線
 70
     0
  3
06 long_dashed_triplicate-dotted ---- ... ---- 
 72
    65
 73
     8
 40
18.75
 49
12.0
 74
     0
 49
-1.5
 74
     0
 49
0.25
 74
     0
 49
-1.5
 74
     0
 49
0.25
 74
     0
 49
-1.5
 74
     0
 49
0.25
 74
     0
 49
-1.5
 74
     0
  0
LTYPE
  5
A8
330
5
100
AcDbSymbolTableRecord
100
AcDbLinetypeTableRecord
  2
SXF_点線
 70
     0
  3
07 dotted . . . . . . . . . . . . 
 72
    65
 73
     2
 40
1.75
 49
0.25
 74
     0
 49
-1.5
 74
     0
  0
LTYPE
  5
A9
330
5
100
AcDbSymbolTableRecord
100
AcDbLinetypeTableRecord
  2
SXF_一点鎖線
 70
     0
  3
08 chain ---- - --- - --- - ---
 72
    65
 73
     4
 40
18.5
 49
12.0
 74
     0
 49
-1.5
 74
     0
 49
3.5
 74
     0
 49
-1.5
 74
     0
  0
LTYPE
  5
AA
330
5
100
AcDbSymbolTableRecord
100
AcDbLinetypeTableRecord
  2
SXF_二点鎖線
 70
     0
  3
09 chain_double_dash ---- - - ---- - - ----
 72
    65
 73
     6
 40
23.5
 49
12.0
 74
     0
 49
-1.5
 74
     0
 49
3.5
 74
     0
 49
-1.5
 74
     0
 49
3.5
 74
     0
 49
-1.5
 74
     0
  0
LTYPE
  5
AB
330
5
100
AcDbSymbolTableRecord
100
AcDbLinetypeTableRecord
  2
SXF_一点短鎖線
 70
     0
  3
10 dashed_dotted -- . -- . -- . --
 72
    65
 73
     4
 40
9.25
 49
6.0
 74
     0
 49
-1.5
 74
     0
 49
0.25
 74
     0
 49
-1.5
 74
     0
  0
LTYPE
  5
AC
330
5
100
AcDbSymbolTableRecord
100
AcDbLinetypeTableRecord
  2
SXF_一点二短鎖線
 70
     0
  3
11 double-dashed_dotted -- -- . -- --
 72
    65
 73
     6
 40
16.75
 49
6.0
 74
     0
 49
-1.5
 74
     0
 49
6.0
 74
     0
 49
-1.5
 74
     0
 49
0.25
 74
     0
 49
-1.5
 74
     0
  0
LTYPE
  5
AD
330
5
100
AcDbSymbolTableRecord
100
AcDbLinetypeTableRecord
  2
SXF_二点短鎖線
 70
     0
  3
12 dashed_double_dotted -- . . -- . . --
 72
    65
 73
     6
 40
11.0
 49
6.0
 74
     0
 49
-1.5
 74
     0
 49
0.25
 74
     0
 49
-1.5
 74
     0
 49
0.25
 74
     0
 49
-1.5
 74
     0
  0
LTYPE
  5
AE
330
5
100
AcDbSymbolTableRecord
100
AcDbLinetypeTableRecord
  2
SXF_二点二短鎖線
 70
     0
  3
13 double-dashed_double-dotted -- -- . . -- --
 72
    65
 73
     8
 40
18.5
 49
6.0
 74
     0
 49
-1.5
 74
     0
 49
6.0
 74
     0
 49
-1.5
 74
     0
 49
0.25
 74
     0
 49
-1.5
 74
     0
 49
0.25
 74
     0
 49
-1.5
 74
     0
  0
LTYPE
  5
AF
330
5
100
AcDbSymbolTableRecord
100
AcDbLinetypeTableRecord
  2
SXF_三点短鎖線
 70
     0
  3
14 dashed triplicate-dotted -- . . . -- . . . --
 72
    65
 73
     8
 40
12.75
 49
6.0
 74
     0
 49
-1.5
 74
     0
 49
0.25
 74
     0
 49
-1.5
 74
     0
 49
0.25
 74
     0
 49
-1.5
 74
     0
 49
0.25
 74
     0
 49
-1.5
 74
     0
  0
LTYPE
  5
B0
330
5
100
AcDbSymbolTableRecord
100
AcDbLinetypeTableRecord
  2
SXF_三点二短鎖線
 70
     0
  3
15 double-dashed triplicate-dotted -- -- . . . -- -- 
 72
    65
 73
    10
 40
20.25
 49
6.0
 74
     0
 49
-1.5
 74
     0
 49
6.0
 74
     0
 49
-1.5
 74
     0
 49
0.25
 74
     0
 49
-1.5
 74
     0
 49
0.25
 74
     0
 49
-1.5
 74
     0
 49
0.25
 74
     0
 49
-1.5
 74
     0
  0
ENDTAB
  0
TABLE
  2
LAYER
  5
2
330
0
100
AcDbSymbolTable
 70
    12
  0
LAYER
  5
10
330
2
100
AcDbSymbolTableRecord
100
AcDbLayerTableRecord
  2
0
 70
     0
 62
     7
  6
Continuous
370
    -3
390
F
347
46
  0
LAYER
  5
B1
330
2
100
AcDbSymbolTableRecord
100
AcDbLayerTableRecord
  2
10
 70
     0
 62
     7
  6
Continuous
370
    -3
390
F
347
46
  0
LAYER
  5
B2
330
2
100
AcDbSymbolTableRecord
100
AcDbLayerTableRecord
  2
2
 70
     0
 62
     7
  6
Continuous
370
    -3
390
F
347
46
  0
LAYER
  5
B3
330
2
100
AcDbSymbolTableRecord
100
AcDbLayerTableRecord
  2
3
 70
     0
 62
     7
  6
Continuous
370
    -3
390
F
347
46
  0
LAYER
  5
B4
330
2
100
AcDbSymbolTableRecord
100
AcDbLayerTableRecord
  2
4
 70
     0
 62
     7
  6
Continuous
370
    -3
390
F
347
46
  0
LAYER
  5
B5
330
2
100
AcDbSymbolTableRecord
100
AcDbLayerTableRecord
  2
5
 70
     0
 62
     7
  6
Continuous
370
    -3
390
F
347
46
  0
LAYER
  5
B6
330
2
100
AcDbSymbolTableRecord
100
AcDbLayerTableRecord
  2
6
 70
     0
 62
     7
  6
Continuous
370
    -3
390
F
347
46
  0
LAYER
  5
B7
330
2
100
AcDbSymbolTableRecord
100
AcDbLayerTableRecord
  2
7
 70
     0
 62
     7
  6
Continuous
370
    -3
390
F
347
46
  0
LAYER
  5
B8
330
2
100
AcDbSymbolTableRecord
100
AcDbLayerTableRecord
  2
L-09
 70
     0
 62
     7
  6
Continuous
370
    -3
390
F
347
46
  0
LAYER
  5
B9
330
2
100
AcDbSymbolTableRecord
100
AcDbLayerTableRecord
  2
L-WORK
 70
     0
 62
     7
  6
Continuous
370
    -3
390
F
347
46
  0
LAYER
  5
BA
330
2
100
AcDbSymbolTableRecord
100
AcDbLayerTableRecord
  2
L-2
 70
     0
 62
     7
  6
Continuous
370
    -3
390
F
347
46
  0
LAYER
  5
BB
330
2
100
AcDbSymbolTableRecord
100
AcDbLayerTableRecord
  2
ZUWAKU
 70
     0
 62
     7
  6
Continuous
370
    -3
390
F
347
46
  0
ENDTAB
  0
TABLE
  2
STYLE
  5
3
330
0
100
AcDbSymbolTable
 70
     3
  0
STYLE
  5
11
330
3
100
AcDbSymbolTableRecord
100
AcDbTextStyleTableRecord
  2
Standard
 70
     0
 40
0.0
 41
1.0
 50
0.0
 71
     0
 42
0.2
  3
txt.shx
  4
bigfont.shx
  0
STYLE
  5
FD
330
3
100
AcDbSymbolTableRecord
100
AcDbTextStyleTableRecord
  2
dcStyle1
 70
     0
 40
0.0
 41
1.2
 50
0.0
 71
     0
 42
0.2
  3
txt.shx
  4
bigfont
  0
STYLE
  5
11E
330
3
100
AcDbSymbolTableRecord
100
AcDbTextStyleTableRecord
  2
dcStyle0
 70
     0
 40
0.0
 41
1.0
 50
0.0
 71
     0
 42
0.2
  3
ＭＳ Ｐゴシック
  4

1001
ACAD
1000
ＭＳ Ｐゴシック
1071
    32802
  0
ENDTAB
  0
TABLE
  2
VIEW
  5
6
330
0
100
AcDbSymbolTable
 70
     0
  0
ENDTAB
  0
TABLE
  2
UCS
  5
7
330
0
100
AcDbSymbolTable
 70
     0
  0
ENDTAB
  0
TABLE
  2
APPID
  5
9
330
0
100
AcDbSymbolTable
 70
     2
  0
APPID
  5
12
330
9
100
AcDbSymbolTableRecord
100
AcDbRegAppTableRecord
  2
ACAD
 70
     0
  0
APPID
  5
6E
330
9
100
AcDbSymbolTableRecord
100
AcDbRegAppTableRecord
  2
DaFusionOut
 70
     0
  0
ENDTAB
  0
TABLE
  2
DIMSTYLE
  5
A
330
0
100
AcDbSymbolTable
 70
     1
100
AcDbDimStyleTable
  0
DIMSTYLE
105
27
330
A
100
AcDbSymbolTableRecord
100
AcDbDimStyleTableRecord
  2
Standard
 70
     0
178
     0
340
11
  0
ENDTAB
  0
TABLE
  2
BLOCK_RECORD
  5
1
330
0
100
AcDbSymbolTable
 70
     8
  0
BLOCK_RECORD
  5
1F
330
1
100
AcDbSymbolTableRecord
100
AcDbBlockTableRecord
  2
*Model_Space
340
22
 70
     0
280
     1
281
     0
  0
BLOCK_RECORD
  5
1B
330
1
100
AcDbSymbolTableRecord
100
AcDbBlockTableRecord
  2
*Paper_Space
340
1E
 70
     0
280
     1
281
     0
  0
BLOCK_RECORD
  5
23
330
1
100
AcDbSymbolTableRecord
100
AcDbBlockTableRecord
  2
*Paper_Space0
340
26
 70
     0
280
     1
281
     0
  0
BLOCK_RECORD
  5
BD
330
1
100
AcDbSymbolTableRecord
100
AcDbBlockTableRecord
  2
DC_GROUP_W_GSTP_S_050_1_1
340
0
102
{BLKREFS
331
3DE
102
}
 70
     0
280
     1
281
     0
  0
BLOCK_RECORD
  5
C0
330
1
100
AcDbSymbolTableRecord
100
AcDbBlockTableRecord
  2
DC_GROUP_W_GSTP_S_050_1_2
340
0
102
{BLKREFS
331
3DF
102
}
 70
     0
280
     1
281
     0
  0
BLOCK_RECORD
  5
C3
330
1
100
AcDbSymbolTableRecord
100
AcDbBlockTableRecord
  2
DC_GROUP_W_GSTP_S_050_1_3
340
0
102
{BLKREFS
331
43B
102
}
 70
     0
280
     1
281
     0
  0
BLOCK_RECORD
  5
C6
330
1
100
AcDbSymbolTableRecord
100
AcDbBlockTableRecord
  2
DC_GROUP_W_GSTP_S_050_1_4
340
0
102
{BLKREFS
331
43C
102
}
 70
     0
280
     1
281
     0
  0
BLOCK_RECORD
  5
C9
330
1
100
AcDbSymbolTableRecord
100
AcDbBlockTableRecord
  2
DC_GROUP_W_GSTP_S_050_1_5
340
0
102
{BLKREFS
331
43D
102
}
 70
     0
280
     1
281
     0
  0
BLOCK_RECORD
  5
CC
330
1
100
AcDbSymbolTableRecord
100
AcDbBlockTableRecord
  2
DC_GROUP_W_GSTP_S_050_1_6
340
0
102
{BLKREFS
331
111
102
}
 70
     0
280
     1
281
     0
  0
BLOCK_RECORD
  5
32E
330
1
100
AcDbSymbolTableRecord
100
AcDbBlockTableRecord
  2
_Open30
340
0
102
{BLKREFS
331
334
331
335
331
337
331
338
331
33A
331
33B
331
33D
331
33E
331
340
331
341
331
343
331
344
331
346
331
347
331
366
331
368
331
36A
331
36C
331
36E
331
370
331
372
331
374
331
376
331
378
102
}
 70
     0
280
     1
281
     0
  0
ENDTAB
  0
ENDSEC
  0
SECTION
  2
BLOCKS
  0
BLOCK
  5
20
330
1F
100
AcDbEntity
  8
0
100
AcDbBlockBegin
  2
*Model_Space
 70
     0
 10
0.0
 20
0.0
 30
0.0
  3
*Model_Space
  1

  0
ENDBLK
  5
21
330
1F
100
AcDbEntity
  8
0
100
AcDbBlockEnd
  0
BLOCK
  5
1C
330
1B
100
AcDbEntity
 67
     1
  8
0
100
AcDbBlockBegin
  2
*Paper_Space
 70
     0
 10
0.0
 20
0.0
 30
0.0
  3
*Paper_Space
  1

  0
ENDBLK
  5
1D
330
1B
100
AcDbEntity
 67
     1
  8
0
100
AcDbBlockEnd
  0
BLOCK
  5
24
330
23
100
AcDbEntity
  8
0
100
AcDbBlockBegin
  2
*Paper_Space0
 70
     0
 10
0.0
 20
0.0
 30
0.0
  3
*Paper_Space0
  1

  0
ENDBLK
  5
25
330
23
100
AcDbEntity
  8
0
100
AcDbBlockEnd
  0
BLOCK
  5
BE
330
BD
100
AcDbEntity
  8
0
100
AcDbBlockBegin
  2
DC_GROUP_W_GSTP_S_050_1_1
 70
     0
 10
0.0
 20
0.0
 30
0.0
  3
DC_GROUP_W_GSTP_S_050_1_1
  1

  0
LINE
  5
CF
330
BD
100
AcDbEntity
  8
L-09
  6
Continuous
 62
     7
370
    13
100
AcDbLine
 10
-315.2639726260441
 20
115.6835222866552
 30
0.0
 11
-302.2639726260441
 21
115.6835222866552
 31
0.0
  0
LINE
  5
D0
330
BD
100
AcDbEntity
  8
L-09
  6
Continuous
 62
     7
370
    13
100
AcDbLine
 10
231.7360273739582
 20
122.6835222866552
 30
0.0
 11
231.7360273739582
 21
123.1835222866552
 31
0.0
  0
LINE
  5
D1
330
BD
100
AcDbEntity
  8
L-09
  6
Continuous
 62
     7
370
    13
100
AcDbLine
 10
244.7360273739582
 20
115.6835222866552
 30
0.0
 11
244.7360273739582
 21
118.6835222866552
 31
0.0
  0
LINE
  5
D2
330
BD
100
AcDbEntity
  8
L-09
  6
Continuous
 62
     7
370
    13
100
AcDbLine
 10
231.7360273739582
 20
115.6835222866552
 30
0.0
 11
231.7360273739582
 21
122.6835222866552
 31
0.0
  0
LINE
  5
D3
330
BD
100
AcDbEntity
  8
L-09
  6
Continuous
 62
     7
370
    13
100
AcDbLine
 10
239.7360273739582
 20
123.6835222866552
 30
0.0
 11
232.2360273739582
 21
123.6835222866552
 31
0.0
  0
LINE
  5
D4
330
BD
100
AcDbEntity
  8
L-09
  6
Continuous
 62
     7
370
    13
100
AcDbLine
 10
244.7360273739582
 20
115.6835222866552
 30
0.0
 11
231.7360273739582
 21
115.6835222866552
 31
0.0
  0
LINE
  5
D5
330
BD
100
AcDbEntity
  8
L-09
  6
Continuous
 62
     7
370
    13
100
AcDbLine
 10
-302.2639726260441
 20
115.6835222866552
 30
0.0
 11
-303.4639726260411
 21
115.6835222866552
 31
0.0
  0
LINE
  5
D6
330
BD
100
AcDbEntity
  8
L-09
  6
Continuous
 62
     7
370
    13
100
AcDbLine
 10
-302.2639726260441
 20
123.1835222866552
 30
0.0
 11
-302.2639726260441
 21
122.6835222866552
 31
0.0
  0
LINE
  5
D7
330
BD
100
AcDbEntity
  8
L-09
  6
Continuous
 62
     7
370
    13
100
AcDbLine
 10
-315.2639726260441
 20
118.6835222866552
 30
0.0
 11
-315.2639726260441
 21
115.6835222866552
 31
0.0
  0
LINE
  5
D8
330
BD
100
AcDbEntity
  8
L-09
  6
Continuous
 62
     7
370
    13
100
AcDbLine
 10
-302.2639726260441
 20
122.6835222866552
 30
0.0
 11
-302.2639726260441
 21
115.6835222866552
 31
0.0
  0
LINE
  5
D9
330
BD
100
AcDbEntity
  8
L-09
  6
Continuous
 62
     7
370
    13
100
AcDbLine
 10
-302.7639726260441
 20
123.6835222866552
 30
0.0
 11
-310.2639726260441
 21
123.6835222866552
 31
0.0
  0
ARC
  5
DA
330
BD
100
AcDbEntity
  8
L-09
  6
Continuous
 62
     7
370
    13
100
AcDbCircle
 10
232.2360273739582
 20
123.1835222866552
 30
0.0
 40
0.5
100
AcDbArc
 50
90.0
 51
180.0
  0
ARC
  5
DB
330
BD
100
AcDbEntity
  8
L-09
  6
Continuous
 62
     7
370
    13
100
AcDbCircle
 10
239.7360273739582
 20
118.6835222866552
 30
0.0
 40
5.0
100
AcDbArc
 50
0.0
 51
90.0
  0
ARC
  5
DC
330
BD
100
AcDbEntity
  8
L-09
  6
Continuous
 62
     7
370
    13
100
AcDbCircle
 10
-302.7639726260441
 20
123.1835222866552
 30
0.0
 40
0.5
100
AcDbArc
 50
0.0
 51
90.0
  0
ARC
  5
DD
330
BD
100
AcDbEntity
  8
L-09
  6
Continuous
 62
     7
370
    13
100
AcDbCircle
 10
-310.2639726260441
 20
118.6835222866552
 30
0.0
 40
5.0
100
AcDbArc
 50
90.0
 51
180.0
  0
ENDBLK
  5
BF
330
BD
100
AcDbEntity
  8
0
100
AcDbBlockEnd
  0
BLOCK
  5
C1
330
C0
100
AcDbEntity
  8
0
100
AcDbBlockBegin
  2
DC_GROUP_W_GSTP_S_050_1_2
 70
     0
 10
0.0
 20
0.0
 30
0.0
  3
DC_GROUP_W_GSTP_S_050_1_2
  1

  0
LINE
  5
DE
330
C0
100
AcDbEntity
  8
7
  6
Continuous
 62
     7
370
    13
100
AcDbLine
 10
231.7360273739582
 20
108.6835222866552
 30
0.0
 11
231.7360273739582
 21
107.6835222866552
 31
0.0
  0
LINE
  5
DF
330
C0
100
AcDbEntity
  8
7
  6
Continuous
 62
     7
370
    13
100
AcDbLine
 10
233.7360273739582
 20
83.68352228665522
 30
0.0
 11
233.7360273739582
 21
105.6835222866552
 31
0.0
  0
LINE
  5
E0
330
C0
100
AcDbEntity
  8
7
  6
Continuous
 62
     7
370
    13
100
AcDbLine
 10
239.7360273739582
 20
82.68352228665522
 30
0.0
 11
234.7360273739582
 21
82.68352228665522
 31
0.0
  0
LINE
  5
E1
330
C0
100
AcDbEntity
  8
7
  6
Continuous
 62
     7
370
    13
100
AcDbLine
 10
231.7360273739582
 20
115.6835222866552
 30
0.0
 11
231.7360273739582
 21
108.6835222866552
 31
0.0
  0
LINE
  5
E2
330
C0
100
AcDbEntity
  8
7
  6
Continuous
 62
     7
370
    13
100
AcDbLine
 10
-304.2639726260418
 20
105.6835222866552
 30
0.0
 11
-304.2639726260418
 21
83.18352228665522
 31
0.0
  0
LINE
  5
E3
330
C0
100
AcDbEntity
  8
7
  6
Continuous
 62
     7
370
    13
100
AcDbLine
 10
-305.2639726260418
 20
82.68352228665522
 30
0.0
 11
-310.2639726260418
 21
82.68352228665522
 31
0.0
  0
LINE
  5
E4
330
C0
100
AcDbEntity
  8
7
  6
Continuous
 62
     7
370
    13
100
AcDbLine
 10
-302.2639726260418
 20
107.6835222866552
 30
0.0
 11
-302.2639726260418
 21
115.6835222866552
 31
0.0
  0
ARC
  5
E5
330
C0
100
AcDbEntity
  8
7
  6
Continuous
 62
     7
370
    13
100
AcDbCircle
 10
-305.2639726260418
 20
83.68352228665522
 30
0.0
 40
1.0
100
AcDbArc
 50
270.0
 51
329.9999999999874
  0
ARC
  5
E6
330
C0
100
AcDbEntity
  8
7
  6
Continuous
 62
     7
370
    13
100
AcDbCircle
 10
232.7360273739582
 20
107.6835222866552
 30
0.0
 40
1.0
100
AcDbArc
 50
180.0
 51
270.0
  0
ARC
  5
E7
330
C0
100
AcDbEntity
  8
7
  6
Continuous
 62
     7
370
    13
100
AcDbCircle
 10
232.7360273739582
 20
105.6835222866552
 30
0.0
 40
1.0
100
AcDbArc
 50
0.0
 51
90.0
  0
ARC
  5
E8
330
C0
100
AcDbEntity
  8
7
  6
Continuous
 62
     7
370
    13
100
AcDbCircle
 10
234.7360273739582
 20
83.68352228665522
 30
0.0
 40
1.0
100
AcDbArc
 50
180.0
 51
270.0
  0
ARC
  5
E9
330
C0
100
AcDbEntity
  8
7
  6
Continuous
 62
     7
370
    13
100
AcDbCircle
 10
-303.2639726260418
 20
107.6835222866552
 30
0.0
 40
1.0
100
AcDbArc
 50
270.0
 51
0.0
  0
ARC
  5
EA
330
C0
100
AcDbEntity
  8
7
  6
Continuous
 62
     7
370
    13
100
AcDbCircle
 10
-303.2639726260418
 20
105.6835222866552
 30
0.0
 40
1.0
100
AcDbArc
 50
90.0
 51
180.0
  0
ENDBLK
  5
C2
330
C0
100
AcDbEntity
  8
0
100
AcDbBlockEnd
  0
BLOCK
  5
C4
330
C3
100
AcDbEntity
  8
0
100
AcDbBlockBegin
  2
DC_GROUP_W_GSTP_S_050_1_3
 70
     0
 10
0.0
 20
0.0
 30
0.0
  3
DC_GROUP_W_GSTP_S_050_1_3
  1

  0
LINE
  5
EB
330
C3
100
AcDbEntity
  8
ZUWAKU
  6
Continuous
 62
     7
370
    13
100
AcDbLine
 10
-591.0
 20
-398.6157700185664
 30
0.0
 11
591.0
 21
-398.6157700185664
 31
0.0
  0
LINE
  5
EC
330
C3
100
AcDbEntity
  8
ZUWAKU
  6
Continuous
 62
     7
370
    13
100
AcDbLine
 10
590.9999999999989
 20
405.3842299814336
 30
0.0
 11
-591.0
 21
405.3842299814336
 31
0.0
  0
LINE
  5
ED
330
C3
100
AcDbEntity
  8
ZUWAKU
  6
Continuous
 62
     7
370
    13
100
AcDbLine
 10
591.0
 20
-398.6157700185664
 30
0.0
 11
590.9999999999989
 21
405.3842299814336
 31
0.0
  0
LINE
  5
EE
330
C3
100
AcDbEntity
  8
ZUWAKU
  6
Continuous
 62
     7
370
    13
100
AcDbLine
 10
-591.0
 20
405.3842299814336
 30
0.0
 11
-591.0
 21
-398.6157700185664
 31
0.0
  0
LINE
  5
EF
330
C3
100
AcDbEntity
  8
ZUWAKU
  6
Continuous
 62
     4
370
    13
100
AcDbLine
 10
-103.4999999999999
 20
-353.6157700185665
 30
0.0
 11
15.00000000000009
 21
-353.6157700185665
 31
0.0
  0
LINE
  5
F0
330
C3
100
AcDbEntity
  8
ZUWAKU
  6
Continuous
 62
     4
370
    13
100
AcDbLine
 10
-555.0
 20
-338.6157700185665
 30
0.0
 11
-555.0
 21
-398.6157700185664
 31
0.0
  0
LINE
  5
F1
330
C3
100
AcDbEntity
  8
ZUWAKU
  6
Continuous
 62
     4
370
    13
100
AcDbLine
 10
-591.0
 20
-368.6157700185665
 30
0.0
 11
591.0
 21
-368.6157700185665
 31
0.0
  0
LINE
  5
F2
330
C3
100
AcDbEntity
  8
ZUWAKU
  6
Continuous
 62
     4
370
    13
100
AcDbLine
 10
15.00000000000009
 20
-398.6157700185664
 30
0.0
 11
15.00000000000009
 21
-338.6157700185665
 31
0.0
  0
LINE
  5
F3
330
C3
100
AcDbEntity
  8
ZUWAKU
  6
Continuous
 62
     4
370
    13
100
AcDbLine
 10
-103.4999999999999
 20
-398.6157700185664
 30
0.0
 11
-103.4999999999999
 21
-338.6157700185665
 31
0.0
  0
LINE
  5
F4
330
C3
100
AcDbEntity
  8
ZUWAKU
  6
Continuous
 62
     4
370
    13
100
AcDbLine
 10
258.0
 20
-338.6157700185665
 30
0.0
 11
258.0
 21
-398.6157700185664
 31
0.0
  0
LINE
  5
F5
330
C3
100
AcDbEntity
  8
ZUWAKU
  6
Continuous
 62
     4
370
    13
100
AcDbLine
 10
90.00000000000009
 20
-338.6157700185665
 30
0.0
 11
90.00000000000009
 21
-398.6157700185664
 31
0.0
  0
LINE
  5
F6
330
C3
100
AcDbEntity
  8
ZUWAKU
  6
Continuous
 62
     4
370
    13
100
AcDbLine
 10
-79.49999999999991
 20
-368.6157700185665
 30
0.0
 11
-79.49999999999991
 21
-398.6157700185664
 31
0.0
  0
LINE
  5
F7
330
C3
100
AcDbEntity
  8
ZUWAKU
  6
Continuous
 62
     4
370
    13
100
AcDbLine
 10
-393.0
 20
-338.6157700185665
 30
0.0
 11
-393.0
 21
-398.6157700185664
 31
0.0
  0
LINE
  5
F8
330
C3
100
AcDbEntity
  8
ZUWAKU
  6
Continuous
 62
     4
370
    13
100
AcDbLine
 10
591.0
 20
-338.6157700185665
 30
0.0
 11
-591.0
 21
-338.6157700185665
 31
0.0
  0
LINE
  5
F9
330
C3
100
AcDbEntity
  8
ZUWAKU
  6
Continuous
 62
     4
370
    13
100
AcDbLine
 10
294.0
 20
-338.6157700185665
 30
0.0
 11
294.0
 21
-398.6157700185664
 31
0.0
  0
LINE
  5
FA
330
C3
100
AcDbEntity
  8
ZUWAKU
  6
Continuous
 62
     3
370
    13
100
AcDbLine
 10
-562.5
 20
-361.1157700185665
 30
0.0
 11
-573.0
 21
-341.6157700185665
 31
0.0
  0
LINE
  5
FB
330
C3
100
AcDbEntity
  8
ZUWAKU
  6
Continuous
 62
     3
370
    13
100
AcDbLine
 10
-583.5
 20
-361.1157700185665
 30
0.0
 11
-562.5
 21
-361.1157700185665
 31
0.0
  0
LINE
  5
FC
330
C3
100
AcDbEntity
  8
ZUWAKU
  6
Continuous
 62
     3
370
    13
100
AcDbLine
 10
-573.0
 20
-341.6157700185665
 30
0.0
 11
-583.5
 21
-361.1157700185665
 31
0.0
  0
TEXT
  5
FE
330
C3
100
AcDbEntity
  8
ZUWAKU
 62
     2
100
AcDbText
 10
263.4
 20
-395.6157700185664
 30
0.0
 40
10.49999999999999
  1
番号
 41
1.527272727272731
  7
dcStyle1
 72
     5
 11
288.6
 21
-395.6157700185664
 31
0.0
100
AcDbText
  0
TEXT
  5
FF
330
C3
100
AcDbEntity
  8
ZUWAKU
 62
     2
100
AcDbText
 10
-97.79999999999991
 20
-395.6157700185664
 30
0.0
 40
10.49999999999999
  1
度
 41
1.68
  7
dcStyle1
 72
     5
 11
-85.19999999999992
 21
-395.6157700185664
 31
0.0
100
AcDbText
  0
TEXT
  5
100
330
C3
100
AcDbEntity
  8
ZUWAKU
 62
     2
100
AcDbText
 10
-584.4657659094848
 20
-395.6157700185664
 30
0.0
 40
10.5
  1
番号
 41
1.272727272727273
  7
dcStyle1
 72
     5
 11
-563.4657659094848
 21
-395.6157700185664
 31
0.0
100
AcDbText
  0
TEXT
  5
101
330
C3
100
AcDbEntity
  8
ZUWAKU
 62
     2
100
AcDbText
 10
25.50000000000009
 20
-359.6157700185665
 30
0.0
 40
12.0
  1
シリーズ名
 41
1.086206896551724
  7
dcStyle1
 72
     5
 11
79.50000000000009
 21
-359.6157700185665
 31
0.0
100
AcDbText
  0
TEXT
  5
102
330
C3
100
AcDbEntity
  8
ZUWAKU
 62
     2
100
AcDbText
 10
34.50000000000009
 20
-389.6157700185665
 30
0.0
 40
12.0
  1
機　種
 41
1.235294117647059
  7
dcStyle1
 72
     5
 11
70.50000000000009
 21
-389.6157700185665
 31
0.0
100
AcDbText
  0
TEXT
  5
103
330
C3
100
AcDbEntity
  8
ZUWAKU
 62
     2
100
AcDbText
 10
-583.5
 20
-382.1157700185665
 30
0.0
 40
10.5
  1
改訂
 41
1.272727272727273
  7
dcStyle1
 72
     5
 11
-562.5
 21
-382.1157700185665
 31
0.0
100
AcDbText
  0
TEXT
  5
104
330
C3
100
AcDbEntity
  8
ZUWAKU
 62
     2
100
AcDbText
 10
-523.3499999999999
 20
-388.8657700185665
 30
0.0
 40
10.49999999999999
  1
改　 訂　 記　 事
 41
1.061290322580644
  7
dcStyle1
 72
     5
 11
-424.65
 21
-388.8657700185665
 31
0.0
100
AcDbText
  0
TEXT
  5
105
330
C3
100
AcDbEntity
  8
ZUWAKU
 62
     2
100
AcDbText
 10
-97.79999999999991
 20
-382.1157700185665
 30
0.0
 40
10.49999999999999
  1
尺
 41
1.68
  7
dcStyle1
 72
     5
 11
-85.19999999999992
 21
-382.1157700185665
 31
0.0
100
AcDbText
  0
TEXT
  5
106
330
C3
100
AcDbEntity
  8
ZUWAKU
 62
     2
100
AcDbText
 10
-80.99999999999989
 20
-351.3657700185665
 30
0.0
 40
10.49999999999999
  1
年　　月　　日
 41
1.195121951219512
  7
dcStyle1
 72
     5
 11
-7.499999999999943
 21
-351.3657700185665
 31
0.0
100
AcDbText
  0
TEXT
  5
107
330
C3
100
AcDbEntity
  8
ZUWAKU
 62
     2
100
AcDbText
 10
263.4
 20
-382.1157700185665
 30
0.0
 40
10.49999999999999
  1
図面
 41
1.527272727272731
  7
dcStyle1
 72
     5
 11
288.6
 21
-382.1157700185665
 31
0.0
100
AcDbText
  0
TEXT
  5
108
330
C3
100
AcDbEntity
  8
ZUWAKU
 62
     2
100
AcDbText
 10
264.0
 20
-359.6157700185665
 30
0.0
 40
12.0
  1
図名
 41
1.272727272727273
  7
dcStyle1
 72
     5
 11
288.0
 21
-359.6157700185665
 31
0.0
100
AcDbText
  0
TEXT
  5
109
330
C3
100
AcDbEntity
  8
ZUWAKU
 62
     7
100
AcDbText
 10
-308.2499999999999
 20
-361.1157700185665
 30
0.0
 40
15.0
  1
技術情報サービス
 41
1.191489361702127
  7
dcStyle1
 72
     5
 11
-188.2499999999999
 21
-361.1157700185665
 31
0.0
100
AcDbText
  0
TEXT
  5
10A
330
C3
100
AcDbEntity
  8
ZUWAKU
 62
     7
100
AcDbText
 10
-352.0235294117646
 20
-389.6157700185665
 30
0.0
 40
12.0
  1
MARUYASU KIKAI CO.,LTD.
 41
0.8990281013395457
  7
dcStyle1
 72
     5
 11
-144.4764705882352
 21
-389.6157700185665
 31
0.0
100
AcDbText
  0
TEXT
  5
10B
330
C3
100
AcDbEntity
  8
ZUWAKU
 62
     4
100
AcDbText
 10
577.3696631771073
 20
-405.3842299814336
 30
0.0
 40
6.0
  1
A3
 41
1.2
  7
dcStyle1
 72
     5
 11
589.3696631771073
 21
-405.3842299814336
 31
0.0
100
AcDbText
  0
ENDBLK
  5
C5
330
C3
100
AcDbEntity
  8
0
100
AcDbBlockEnd
  0
BLOCK
  5
C7
330
C6
100
AcDbEntity
  8
0
100
AcDbBlockBegin
  2
DC_GROUP_W_GSTP_S_050_1_4
 70
     0
 10
0.0
 20
0.0
 30
0.0
  3
DC_GROUP_W_GSTP_S_050_1_4
  1

  0
POINT
  5
10C
330
C6
100
AcDbEntity
  8
ZUWAKU
  6
Continuous
 62
     2
100
AcDbPoint
 10
174.0000000000001
 20
-353.6157700185665
 30
0.0
  0
POINT
  5
10D
330
C6
100
AcDbEntity
  8
ZUWAKU
  6
Continuous
 62
     2
100
AcDbPoint
 10
174.0000000000001
 20
-383.6157700185664
 30
0.0
  0
POINT
  5
10E
330
C6
100
AcDbEntity
  8
ZUWAKU
  6
Continuous
 62
     2
100
AcDbPoint
 10
582.0
 20
-383.6157700185664
 30
0.0
  0
POINT
  5
10F
330
C6
100
AcDbEntity
  8
ZUWAKU
  6
Continuous
 62
     2
100
AcDbPoint
 10
442.5
 20
-353.6157700185665
 30
0.0
  0
POINT
  5
110
330
C6
100
AcDbEntity
  8
ZUWAKU
  6
Continuous
 62
     2
100
AcDbPoint
 10
-32.24999999999991
 20
-383.6157700185664
 30
0.0
  0
ENDBLK
  5
C8
330
C6
100
AcDbEntity
  8
0
100
AcDbBlockEnd
  0
BLOCK
  5
CA
330
C9
100
AcDbEntity
  8
0
100
AcDbBlockBegin
  2
DC_GROUP_W_GSTP_S_050_1_5
 70
     0
 10
0.0
 20
0.0
 30
0.0
  3
DC_GROUP_W_GSTP_S_050_1_5
  1

  0
INSERT
  5
111
330
C9
100
AcDbEntity
  8
10
  6
Continuous
100
AcDbBlockReference
  2
DC_GROUP_W_GSTP_S_050_1_6
 10
0.0
 20
0.0
 30
0.0
  0
ENDBLK
  5
CB
330
C9
100
AcDbEntity
  8
0
100
AcDbBlockEnd
  0
BLOCK
  5
CD
330
CC
100
AcDbEntity
  8
0
100
AcDbBlockBegin
  2
DC_GROUP_W_GSTP_S_050_1_6
 70
     0
 10
0.0
 20
0.0
 30
0.0
  3
DC_GROUP_W_GSTP_S_050_1_6
  1

  0
LINE
  5
112
330
CC
100
AcDbEntity
  8
10
  6
Continuous
 62
     2
370
    13
100
AcDbLine
 10
-5.988202247191055
 20
-204.6168539325842
 30
0.0
 11
2.67205179065337
 21
-219.6168539325842
 31
0.0
  0
LINE
  5
113
330
CC
100
AcDbEntity
  8
10
  6
Continuous
 62
     2
370
    13
100
AcDbLine
 10
2.67205179065337
 20
-219.6168539325842
 30
0.0
 11
-14.64845628503548
 21
-219.6168539325842
 31
0.0
  0
LINE
  5
114
330
CC
100
AcDbEntity
  8
10
  6
Continuous
 62
     2
370
    13
100
AcDbLine
 10
-14.64845628503548
 20
-219.6168539325842
 30
0.0
 11
-5.988202247191055
 21
-204.6168539325842
 31
0.0
  0
TEXT
  5
115
330
CC
100
AcDbEntity
  8
10
 62
     2
100
AcDbText
 10
-8.238202247191055
 20
-218.4918539325842
 30
0.0
 40
7.5
  1
1
 41
1.145454545454545
  7
dcStyle1
 72
     5
 11
-3.738202247191055
 21
-218.4918539325842
 31
0.0
100
AcDbText
  0
ENDBLK
  5
CE
330
CC
100
AcDbEntity
  8
0
100
AcDbBlockEnd
  0
BLOCK
  5
32F
330
32E
100
AcDbEntity
  8
0
100
AcDbBlockBegin
  2
_Open30
 70
     0
 10
0.0
 20
0.0
 30
0.0
  3
_Open30
  1

  0
LINE
  5
331
330
32E
100
AcDbEntity
  8
0
  6
ByBlock
 62
     0
370
    -2
100
AcDbLine
 10
-1.0
 20
0.267949
 30
0.0
 11
0.0
 21
0.0
 31
0.0
  0
LINE
  5
332
330
32E
100
AcDbEntity
  8
0
  6
ByBlock
 62
     0
370
    -2
100
AcDbLine
 10
0.0
 20
0.0
 30
0.0
 11
-1.0
 21
-0.267949
 31
0.0
  0
LINE
  5
333
330
32E
100
AcDbEntity
  8
0
  6
ByBlock
 62
     0
370
    -2
100
AcDbLine
 10
0.0
 20
0.0
 30
0.0
 11
-1.0
 21
0.0
 31
0.0
  0
ENDBLK
  5
330
330
32E
100
AcDbEntity
  8
0
100
AcDbBlockEnd
  0
ENDSEC
  0
SECTION
  2
ENTITIES
  0
LINE
  5
116
330
1F
100
AcDbEntity
  8
0
  6
Continuous
 62
     3
370
    13
100
AcDbLine
 10
-342.9469745465631
 20
-227.96947944422
 30
0.0
 11
-63.54444444444621
 21
-227.96947944422
 31
0.0
  0
LINE
  5
117
330
1F
100
AcDbEntity
  8
0
  6
Continuous
 62
     3
370
    13
100
AcDbLine
 10
-342.9469745465631
 20
-247.96947944422
 30
0.0
 11
-63.54444444444621
 21
-247.96947944422
 31
0.0
  0
LINE
  5
118
330
1F
100
AcDbEntity
  8
0
  6
Continuous
 62
     3
370
    13
100
AcDbLine
 10
-342.9469745465631
 20
-247.96947944422
 30
0.0
 11
-342.9469745465631
 21
-207.9694794442199
 31
0.0
  0
LINE
  5
119
330
1F
100
AcDbEntity
  8
0
  6
Continuous
 62
     3
370
    13
100
AcDbLine
 10
-342.9469745465631
 20
-207.9694794442199
 30
0.0
 11
-63.54444444444621
 21
-207.9694794442199
 31
0.0
  0
LINE
  5
11A
330
1F
100
AcDbEntity
  8
0
  6
Continuous
 62
     3
370
    13
100
AcDbLine
 10
-63.5444444444453
 20
-207.9694794442199
 30
0.0
 11
-63.54444444444439
 21
-247.96947944422
 31
0.0
  0
LINE
  5
11B
330
1F
100
AcDbEntity
  8
0
  6
Continuous
 62
     3
370
    13
100
AcDbLine
 10
-218.0242389211529
 20
-207.9694794442199
 30
0.0
 11
-218.0242389211519
 21
-247.96947944422
 31
0.0
  0
LINE
  5
11C
330
1F
100
AcDbEntity
  8
0
  6
CENTERX2
 62
     3
370
    13
100
AcDbLine
 10
-18.76397262604405
 20
157.0623108360213
 30
0.0
 11
-18.76397262604405
 21
-75.7551797798889
 31
0.0
  0
LINE
  5
11D
330
1F
100
AcDbEntity
  8
0
  6
CENTERX2
 62
     3
370
    13
100
AcDbLine
 10
-305.2017474841205
 20
115.6835222866552
 30
0.0
 11
235.2982627678821
 21
115.6835222866552
 31
0.0
  0
TEXT
  5
11F
330
1F
100
AcDbEntity
  8
0
 62
     2
100
AcDbText
 10
-336.94867997152
 20
-222.4252258263998
 30
0.0
 40
12.0
  1
ローラ幅（mm）
 41
0.7887032236248874
  7
dcStyle0
 72
     5
 11
-252.94867997152
 21
-222.4252258263998
 31
0.0
100
AcDbText
  0
TEXT
  5
120
330
1F
100
AcDbEntity
  8
0
 62
     2
100
AcDbText
 10
-209.8654320987654
 20
-223.96947944422
 30
0.0
 40
12.0
  1
200,  300,  400,  500
 41
0.8556340180973345
  7
dcStyle0
 72
     5
 11
-83.86543209876544
 21
-223.96947944422
 31
0.0
100
AcDbText
  0
TEXT
  5
121
330
1F
100
AcDbEntity
  8
0
 62
     2
100
AcDbText
 10
-336.94867997152
 20
-243.5440267035639
 30
0.0
 40
12.0
  1
昇降ストローク（mm）
 41
0.7949304174950299
  7
dcStyle0
 72
     5
 11
-216.94867997152
 21
-243.5440267035639
 31
0.0
100
AcDbText
  0
TEXT
  5
122
330
1F
100
AcDbEntity
  8
0
 62
     2
100
AcDbText
 10
-209.8654320987654
 20
-243.2369308872471
 30
0.0
 40
12.0
  1
25
 41
0.6875
  7
dcStyle0
 72
     5
 11
-197.8654320987654
 21
-243.2369308872471
 31
0.0
100
AcDbText
  0
TEXT
  5
123
330
1F
100
AcDbEntity
  8
0
 62
     2
100
AcDbText
 10
10.64640440896534
 20
-219.0723385168641
 30
0.0
 40
12.0
  1
注1 本図はGS18Hローラ幅500に取付た場合です
 41
0.701350606394708
  7
dcStyle0
 72
     5
 11
262.6464044089653
 21
-219.0723385168641
 31
0.0
100
AcDbText
  0
TEXT
  5
124
330
1F
100
AcDbEntity
  8
0
 62
     2
100
AcDbText
 10
10.64640440896534
 20
-237.6858819104622
 30
0.0
 40
12.0
  1
注2 本図はシリンダ径φ25、ストローク25 mmの場合です
 41
0.739260389779879
  7
dcStyle0
 72
     5
 11
316.6464044089653
 21
-237.6858819104622
 31
0.0
100
AcDbText
  0
TEXT
  5
125
330
1F
100
AcDbEntity
  8
0
 62
     2
100
AcDbText
 10
10.64640440896534
 20
-255.5912875888807
 30
0.0
 40
12.0
  1
注3 取付コンベヤフレームに取付用の穴を加工してください
 41
0.7523939284121322
  7
dcStyle0
 72
     5
 11
334.6464044089653
 21
-255.5912875888807
 31
0.0
100
AcDbText
  0
TEXT
  5
126
330
1F
100
AcDbEntity
  8
0
 62
     2
100
AcDbText
 10
10.64640440896534
 20
-201.1964227628235
 30
0.0
 40
12.0
  1
※1 ストッパ幅・形状は仕様、搬送物サイズなどにより検討してください
 41
0.7751215987593404
  7
dcStyle0
 72
     5
 11
406.6464044089653
 21
-201.1964227628235
 31
0.0
100
AcDbText
  0
TEXT
  5
127
330
1F
100
AcDbEntity
  8
0
 62
     2
100
AcDbText
 10
52.98285039797929
 20
178.8273352597171
 30
0.0
 40
12.0
  1
※1
 41
0.6875
  7
dcStyle0
 72
     5
 11
70.98285039797929
 21
178.8273352597171
 31
0.0
100
AcDbText
  0
TEXT
  5
128
330
1F
100
AcDbEntity
  8
0
 62
     2
100
AcDbText
 10
-347.2639726260456
 20
64.18352228665553
 30
0.0
 40
12.0
  1
115
 50
90.0
 41
0.6875
  7
dcStyle0
 72
     5
 11
-347.2639726260456
 21
82.18352228665553
 31
0.0
100
AcDbText
  0
TEXT
  5
129
330
1F
100
AcDbEntity
  8
0
 62
     2
100
AcDbText
 10
-114.0810856071134
 20
-81.00981771334587
 30
0.0
 40
12.0
  1
20
 50
90.0
 41
0.6875
  7
dcStyle0
 72
     5
 11
-114.0810856071134
 21
-69.00981771334587
 31
0.0
100
AcDbText
  0
TEXT
  5
12A
330
1F
100
AcDbEntity
  8
0
 62
     2
100
AcDbText
 10
379.0009339370256
 20
-104.6529669417564
 30
0.0
 40
12.0
  1
50
 41
0.6875
  7
dcStyle0
 72
     5
 11
391.0009339370256
 21
-104.6529669417564
 31
0.0
100
AcDbText
  0
TEXT
  5
12B
330
1F
100
AcDbEntity
  8
0
 62
     2
100
AcDbText
 10
-235.5874917322778
 20
85.49018228665359
 30
0.0
 40
12.0
  1
4
 50
90.0
 41
0.6875
  7
dcStyle0
 72
     5
 11
-235.5874917322778
 21
91.49018228665359
 31
0.0
100
AcDbText
  0
TEXT
  5
12C
330
1F
100
AcDbEntity
  8
0
 62
     2
100
AcDbText
 10
-302.0139756060439
 20
216.0699319568225
 30
0.0
 40
12.0
  1
50.5
 41
0.8074515347334411
  7
dcStyle0
 72
     5
 11
-278.0139756060439
 21
216.0699319568225
 31
0.0
100
AcDbText
  0
TEXT
  5
12D
330
1F
100
AcDbEntity
  8
0
 62
     2
100
AcDbText
 10
256.429367373956
 20
216.0699319568225
 30
0.0
 40
12.0
  1
13.5
 41
0.8074515347334411
  7
dcStyle0
 72
     5
 11
280.429367373956
 21
216.0699319568225
 31
0.0
100
AcDbText
  0
TEXT
  5
12E
330
1F
100
AcDbEntity
  8
0
 62
     2
100
AcDbText
 10
201.4793103997483
 20
152.8768622866535
 30
0.0
 40
12.0
  1
16.5
 50
90.0
 41
0.8074515347334411
  7
dcStyle0
 72
     5
 11
201.4793103997483
 21
176.8768622866535
 31
0.0
100
AcDbText
  0
TEXT
  5
12F
330
1F
100
AcDbEntity
  8
0
 62
     2
100
AcDbText
 10
-348.2639726260456
 20
-18.81647771334561
 30
0.0
 40
12.0
  1
57
 50
90.0
 41
0.6875
  7
dcStyle0
 72
     5
 11
-348.2639726260456
 21
-6.816477713345613
 31
0.0
100
AcDbText
  0
TEXT
  5
130
330
1F
100
AcDbEntity
  8
0
 62
     2
100
AcDbText
 10
-348.2639726260456
 20
-55.31647771334601
 30
0.0
 40
12.0
  1
16
 50
90.0
 41
0.6875
  7
dcStyle0
 72
     5
 11
-348.2639726260456
 21
-43.31647771334601
 31
0.0
100
AcDbText
  0
TEXT
  5
131
330
1F
100
AcDbEntity
  8
0
 62
     2
100
AcDbText
 10
90.00000000000006
 20
-359.6157700185665
 30
0.0
 40
12.0
  1
レスベヤシリーズ(オプション)
 41
1.13953488372093
  7
dcStyle1
 72
     5
 11
258.0000000000001
 21
-359.6157700185665
 31
0.0
100
AcDbText
  0
TEXT
  5
132
330
1F
100
AcDbEntity
  8
0
 62
     2
100
AcDbText
 10
162.0000000000001
 20
-389.6157700185664
 30
0.0
 40
12.0
  1
GSTP
 41
0.56
  7
dcStyle1
 72
     5
 11
186.0000000000001
 21
-389.6157700185664
 31
0.0
100
AcDbText
  0
TEXT
  5
133
330
1F
100
AcDbEntity
  8
0
 62
     2
100
AcDbText
 10
498.0
 20
-389.6157700185664
 30
0.0
 40
12.0
  1
W_GSTP_S_050_1
 41
0.5719844357976654
  7
dcStyle1
 72
     5
 11
582.0
 21
-389.6157700185664
 31
0.0
100
AcDbText
  0
TEXT
  5
134
330
1F
100
AcDbEntity
  8
0
 62
     2
100
AcDbText
 10
301.5
 20
-359.6157700185665
 30
0.0
 40
12.0
  1
組立図　ストッパ  GS18H  昇降ストローク　25  mm
 41
0.805057096247961
  7
dcStyle1
 72
     5
 11
583.5
 21
-359.6157700185665
 31
0.0
100
AcDbText
  0
TEXT
  5
135
330
1F
100
AcDbEntity
  8
0
 62
     2
100
AcDbText
 10
-41.24999999999991
 20
-389.6157700185664
 30
0.0
 40
12.0
  1
1/3
 41
0.5338983050847458
  7
dcStyle1
 72
     5
 11
-23.24999999999991
 21
-389.6157700185664
 31
0.0
100
AcDbText
  0
TEXT
  5
136
330
1F
100
AcDbEntity
  8
0
 62
     2
100
AcDbText
 10
-576.1437598505119
 20
-361.1157700185665
 30
0.0
 40
12.0
  1
1
 41
0.9545454545454546
  7
dcStyle1
 72
     5
 11
-570.1437598505119
 21
-361.1157700185665
 31
0.0
100
AcDbText
  0
TEXT
  5
137
330
1F
100
AcDbEntity
  8
0
 62
     2
100
AcDbText
 10
-546.766853932584
 20
-360.3335414065752
 30
0.0
 40
12.0
  1
リニューアルのため変更
 41
1.184615384615385
  7
dcStyle1
 72
     5
 11
-414.766853932584
 21
-360.3335414065752
 31
0.0
100
AcDbText
  0
LINE
  5
138
330
1F
100
AcDbEntity
  8
10
  6
CENTERX2
 62
     3
370
    13
100
AcDbLine
 10
390.7409339370281
 20
115.6835222866552
 30
0.0
 11
365.2609339370281
 21
115.6835222866552
 31
0.0
  0
LINE
  5
139
330
1F
100
AcDbEntity
  8
10
  6
CENTERX2
 62
     3
370
    13
100
AcDbLine
 10
378.0009339370281
 20
128.4235222866552
 30
0.0
 11
378.0009339370283
 21
102.9435222866552
 31
0.0
  0
LINE
  5
13A
330
1F
100
AcDbEntity
  8
10
  6
CENTERX2
 62
     3
370
    13
100
AcDbLine
 10
398.0009339370281
 20
128.4235222866552
 30
0.0
 11
398.0009339370283
 21
102.9435222866552
 31
0.0
  0
LINE
  5
13B
330
1F
100
AcDbEntity
  8
10
  6
CENTERX2
 62
     3
370
    13
100
AcDbLine
 10
385.2609339370281
 20
115.6835222866552
 30
0.0
 11
410.7409339370281
 21
115.6835222866552
 31
0.0
  0
LINE
  5
13C
330
1F
100
AcDbEntity
  8
10
  6
CENTERX2
 62
     3
370
    13
100
AcDbLine
 10
358.0009339370281
 20
128.4235222866552
 30
0.0
 11
358.0009339370281
 21
102.9435222866552
 31
0.0
  0
LINE
  5
13D
330
1F
100
AcDbEntity
  8
10
  6
CENTERX2
 62
     3
370
    13
100
AcDbLine
 10
373.2409339370281
 20
115.6835222866552
 30
0.0
 11
345.2609339370281
 21
115.6835222866552
 31
0.0
  0
LINE
  5
13E
330
1F
100
AcDbEntity
  8
10
  6
CENTERX2
 62
     3
370
    13
100
AcDbLine
 10
338.0009339370281
 20
128.4235222866552
 30
0.0
 11
338.0009339370281
 21
102.9435222866552
 31
0.0
  0
LINE
  5
13F
330
1F
100
AcDbEntity
  8
10
  6
CENTERX2
 62
     3
370
    13
100
AcDbLine
 10
350.7409339370281
 20
115.6835222866552
 30
0.0
 11
325.2609339370281
 21
115.6835222866552
 31
0.0
  0
LINE
  5
140
330
1F
100
AcDbEntity
  8
10
  6
CENTERX2
 62
     3
370
    13
100
AcDbLine
 10
405.2609339370281
 20
115.6835222866552
 30
0.0
 11
430.7409339370281
 21
115.6835222866553
 31
0.0
  0
LINE
  5
141
330
1F
100
AcDbEntity
  8
10
  6
CENTERX2
 62
     3
370
    13
100
AcDbLine
 10
418.0009339370281
 20
128.4235222866553
 30
0.0
 11
418.0009339370283
 21
102.9435222866552
 31
0.0
  0
LINE
  5
142
330
1F
100
AcDbEntity
  8
10
  6
CENTERX2
 62
     3
370
    13
100
AcDbLine
 10
425.2609339370281
 20
115.6835222866552
 30
0.0
 11
450.7409339370281
 21
115.6835222866553
 31
0.0
  0
LINE
  5
143
330
1F
100
AcDbEntity
  8
10
  6
CENTERX2
 62
     3
370
    13
100
AcDbLine
 10
438.0009339370281
 20
128.4235222866553
 30
0.0
 11
438.0009339370283
 21
102.9435222866553
 31
0.0
  0
LINE
  5
144
330
1F
100
AcDbEntity
  8
10
  6
CENTERX2
 62
     3
370
    13
100
AcDbLine
 10
405.400933937028
 20
115.6835222866552
 30
0.0
 11
430.6009339370287
 21
115.6835222866552
 31
0.0
  0
LINE
  5
145
330
1F
100
AcDbEntity
  8
10
  6
CENTERX2
 62
     3
370
    13
100
AcDbLine
 10
418.0009339370283
 20
128.2835222866556
 30
0.0
 11
418.0009339370283
 21
103.0835222866549
 31
0.0
  0
LINE
  5
146
330
1F
100
AcDbEntity
  8
10
  6
CENTERX2
 62
     3
370
    13
100
AcDbLine
 10
425.4009339370277
 20
115.6835222866552
 30
0.0
 11
450.6009339370287
 21
115.6835222866552
 31
0.0
  0
LINE
  5
147
330
1F
100
AcDbEntity
  8
10
  6
CENTERX2
 62
     3
370
    13
100
AcDbLine
 10
438.0009339370283
 20
128.2835222866556
 30
0.0
 11
438.0009339370283
 21
103.0835222866547
 31
0.0
  0
LINE
  5
148
330
1F
100
AcDbEntity
  8
10
  6
Continuous
 62
     3
370
    13
100
AcDbLine
 10
231.2360273739559
 20
111.6835222866552
 30
0.0
 11
231.2360273739559
 21
119.6835222866556
 31
0.0
  0
LINE
  5
149
330
1F
100
AcDbEntity
  8
10
  6
Continuous
 62
     7
370
    13
100
AcDbLine
 10
244.7360273739578
 20
15.68352228665517
 30
0.0
 11
239.7360273739578
 21
15.68352228665517
 31
0.0
  0
LINE
  5
14A
330
1F
100
AcDbEntity
  8
10
  6
Continuous
 62
     7
370
    13
100
AcDbLine
 10
-310.2639726260441
 20
15.68352228665517
 30
0.0
 11
-315.2639726260441
 21
15.68352228665517
 31
0.0
  0
LINE
  5
14B
330
1F
100
AcDbEntity
  8
10
  6
Continuous
 62
     7
370
    13
100
AcDbLine
 10
-310.2639726260441
 20
27.68352228665517
 30
0.0
 11
-285.2639726260441
 21
27.68352228665517
 31
0.0
  0
LINE
  5
14C
330
1F
100
AcDbEntity
  8
10
  6
Continuous
 62
     7
370
    13
100
AcDbLine
 10
-285.2639726260441
 20
15.68352228665517
 30
0.0
 11
-310.2639726260441
 21
15.68352228665517
 31
0.0
  0
LINE
  5
14D
330
1F
100
AcDbEntity
  8
10
  6
Continuous
 62
     7
370
    13
100
AcDbLine
 10
-310.2639726260441
 20
15.68352228665517
 30
0.0
 11
-310.2639726260441
 21
27.68352228665517
 31
0.0
  0
LINE
  5
14E
330
1F
100
AcDbEntity
  8
10
  6
Continuous
 62
     7
370
    13
100
AcDbLine
 10
-285.2639726260441
 20
27.68352228665517
 30
0.0
 11
-285.2639726260441
 21
15.68352228665517
 31
0.0
  0
LINE
  5
14F
330
1F
100
AcDbEntity
  8
10
  6
Continuous
 62
     7
370
    13
100
AcDbLine
 10
214.7360273739578
 20
27.68352228665517
 30
0.0
 11
214.7360273739578
 21
15.68352228665517
 31
0.0
  0
LINE
  5
150
330
1F
100
AcDbEntity
  8
10
  6
Continuous
 62
     7
370
    13
100
AcDbLine
 10
239.7360273739578
 20
27.68352228665517
 30
0.0
 11
214.7360273739578
 21
27.68352228665517
 31
0.0
  0
LINE
  5
151
330
1F
100
AcDbEntity
  8
10
  6
Continuous
 62
     7
370
    13
100
AcDbLine
 10
214.7360273739578
 20
15.68352228665517
 30
0.0
 11
239.7360273739578
 21
15.68352228665517
 31
0.0
  0
LINE
  5
152
330
1F
100
AcDbEntity
  8
10
  6
Continuous
 62
     7
370
    13
100
AcDbLine
 10
239.7360273739578
 20
15.68352228665517
 30
0.0
 11
239.7360273739578
 21
27.68352228665517
 31
0.0
  0
LINE
  5
153
330
1F
100
AcDbEntity
  8
10
  6
Continuous
 62
     7
370
    13
100
AcDbLine
 10
231.2360273739559
 20
107.1835222866552
 30
0.0
 11
231.2360273739559
 21
124.1835222866556
 31
0.0
  0
LINE
  5
154
330
1F
100
AcDbEntity
  8
10
  6
Continuous
 62
     7
370
    13
100
AcDbLine
 10
231.7360273739578
 20
119.1835222866552
 30
0.0
 11
231.2360273739559
 21
119.6835222866556
 31
0.0
  0
LINE
  5
155
330
1F
100
AcDbEntity
  8
10
  6
Continuous
 62
     7
370
    13
100
AcDbLine
 10
231.7360273739559
 20
112.1835222866552
 30
0.0
 11
231.2360273739559
 21
111.6835222866552
 31
0.0
  0
LINE
  5
156
330
1F
100
AcDbEntity
  8
10
  6
Continuous
 62
     7
370
    13
100
AcDbLine
 10
231.7360273739578
 20
115.6835222866552
 30
0.0
 11
231.7360273739578
 21
110.7845428010864
 31
0.0
  0
CIRCLE
  5
157
330
1F
100
AcDbEntity
  8
10
  6
PHANTOM
 62
   140
370
    13
100
AcDbCircle
 10
338.0009339370281
 20
115.6835222866552
 30
0.0
 40
9.000000000000341
  0
CIRCLE
  5
158
330
1F
100
AcDbEntity
  8
10
  6
PHANTOM
 62
   140
370
    13
100
AcDbCircle
 10
358.0009339370281
 20
115.6835222866543
 30
0.0
 40
9.000000000001222
  0
CIRCLE
  5
159
330
1F
100
AcDbEntity
  8
10
  6
PHANTOM
 62
   140
370
    13
100
AcDbCircle
 10
418.0009339370283
 20
115.6835222866552
 30
0.0
 40
9.000000000000256
  0
CIRCLE
  5
15A
330
1F
100
AcDbEntity
  8
10
  6
PHANTOM
 62
   140
370
    13
100
AcDbCircle
 10
438.0009339370283
 20
115.6835222866552
 30
0.0
 40
9.000000000000341
  0
CIRCLE
  5
15B
330
1F
100
AcDbEntity
  8
10
  6
PHANTOM
 62
   140
370
    13
100
AcDbCircle
 10
378.0009339370283
 20
115.6835222866552
 30
0.0
 40
4.000000000000341
  0
CIRCLE
  5
15C
330
1F
100
AcDbEntity
  8
10
  6
PHANTOM
 62
   140
370
    13
100
AcDbCircle
 10
398.0009339370283
 20
115.6835222866552
 30
0.0
 40
4.000000000000341
  0
LINE
  5
15D
330
1F
100
AcDbEntity
  8
2
  6
Continuous
 62
     7
370
    13
100
AcDbLine
 10
360.0009339370256
 20
-37.31649297213541
 30
0.0
 11
410.0009339370256
 21
-37.31649297213536
 31
0.0
  0
LINE
  5
15E
330
1F
100
AcDbEntity
  8
2
  6
Continuous
 62
     7
370
    13
100
AcDbLine
 10
410.0009339370256
 20
-41.3164929721361
 30
0.0
 11
360.0009339370256
 21
-41.31649297213615
 31
0.0
  0
LINE
  5
15F
330
1F
100
AcDbEntity
  8
2
  6
Continuous
 62
     7
370
    13
100
AcDbLine
 10
360.0009339370256
 20
-41.31649297213615
 30
0.0
 11
360.0009339370256
 21
-37.31649297213541
 31
0.0
  0
LINE
  5
160
330
1F
100
AcDbEntity
  8
2
  6
Continuous
 62
     7
370
    13
100
AcDbLine
 10
410.0009339370256
 20
-37.31649297213536
 30
0.0
 11
410.0009339370256
 21
-41.3164929721361
 31
0.0
  0
LINE
  5
161
330
1F
100
AcDbEntity
  8
2
  6
Continuous
 62
     7
370
    13
100
AcDbLine
 10
356.0009339370256
 20
-41.31649297213593
 30
0.0
 11
356.0009339370247
 21
-57.31649297213638
 31
0.0
  0
LINE
  5
162
330
1F
100
AcDbEntity
  8
2
  6
Continuous
 62
     7
370
    13
100
AcDbLine
 10
356.0009339370247
 20
-57.31649297213638
 30
0.0
 11
360.0009339370256
 21
-57.31649297213638
 31
0.0
  0
LINE
  5
163
330
1F
100
AcDbEntity
  8
2
  6
Continuous
 62
     7
370
    13
100
AcDbLine
 10
360.0009339370256
 20
-57.31649297213638
 30
0.0
 11
360.0009339370256
 21
-41.31649297213615
 31
0.0
  0
ARC
  5
164
330
1F
100
AcDbEntity
  8
2
  6
Continuous
 62
     7
370
    13
100
AcDbCircle
 10
360.0009339370256
 20
-41.31649297213615
 30
0.0
 40
4.0
100
AcDbArc
 50
90.00000000000006
 51
179.9999999999968
  0
LINE
  5
165
330
1F
100
AcDbEntity
  8
2
  6
Continuous
 62
     7
370
    13
100
AcDbLine
 10
414.000933937026
 20
-41.31649297213587
 30
0.0
 11
414.0009339370265
 21
-57.31649297213632
 31
0.0
  0
LINE
  5
166
330
1F
100
AcDbEntity
  8
2
  6
Continuous
 62
     7
370
    13
100
AcDbLine
 10
414.0009339370265
 20
-57.31649297213632
 30
0.0
 11
410.0009339370256
 21
-57.31649297213632
 31
0.0
  0
LINE
  5
167
330
1F
100
AcDbEntity
  8
2
  6
Continuous
 62
     7
370
    13
100
AcDbLine
 10
410.0009339370256
 20
-57.31649297213632
 30
0.0
 11
410.0009339370256
 21
-41.3164929721361
 31
0.0
  0
ARC
  5
168
330
1F
100
AcDbEntity
  8
2
  6
Continuous
 62
     7
370
    13
100
AcDbCircle
 10
410.000933937026
 20
-41.3164929721361
 30
0.0
 40
4.0
100
AcDbArc
 50
0.0000000000033126
 51
90.00000000000006
  0
LINE
  5
169
330
1F
100
AcDbEntity
  8
2
  6
Continuous
 62
     7
370
    13
100
AcDbLine
 10
244.7360273739596
 20
11.68352228665523
 30
0.0
 11
244.7360273739596
 21
15.68352228665517
 31
0.0
  0
LINE
  5
16A
330
1F
100
AcDbEntity
  8
2
  6
Continuous
 62
     7
370
    13
100
AcDbLine
 10
-315.2639726260425
 20
15.68352228665517
 30
0.0
 11
-315.2639726260425
 21
11.68352228665523
 31
0.0
  0
LINE
  5
16B
330
1F
100
AcDbEntity
  8
2
  6
Continuous
 62
     7
370
    13
100
AcDbLine
 10
219.7360273739584
 20
-37.31647771334651
 30
0.0
 11
219.7360273739598
 21
11.68352228665517
 31
0.0
  0
LINE
  5
16C
330
1F
100
AcDbEntity
  8
2
  6
Continuous
 62
     7
370
    13
100
AcDbLine
 10
215.7360273739582
 20
11.68352228665517
 30
0.0
 11
215.7360273739582
 21
-37.31647771334639
 31
0.0
  0
LINE
  5
16D
330
1F
100
AcDbEntity
  8
2
  6
Continuous
 62
     7
370
    13
100
AcDbLine
 10
-286.2639726260416
 20
11.68352228665506
 30
0.0
 11
-286.2639726260429
 21
-37.31647771334639
 31
0.0
  0
LINE
  5
16E
330
1F
100
AcDbEntity
  8
2
  6
Continuous
 62
     7
370
    13
100
AcDbLine
 10
-315.2639726260425
 20
11.68352228665523
 30
0.0
 11
-290.2639726260429
 21
11.68352228665517
 31
0.0
  0
LINE
  5
16F
330
1F
100
AcDbEntity
  8
2
  6
Continuous
 62
     7
370
    13
100
AcDbLine
 10
-315.2639726260425
 20
15.68352228665517
 30
0.0
 11
-290.2639726260416
 21
15.68352228665517
 31
0.0
  0
LINE
  5
170
330
1F
100
AcDbEntity
  8
2
  6
Continuous
 62
     7
370
    13
100
AcDbLine
 10
244.7360273739596
 20
15.68352228665517
 30
0.0
 11
219.7360273739582
 21
15.68352228665517
 31
0.0
  0
LINE
  5
171
330
1F
100
AcDbEntity
  8
2
  6
Continuous
 62
     7
370
    13
100
AcDbLine
 10
219.7360273739582
 20
11.68352228665517
 30
0.0
 11
244.7360273739596
 21
11.68352228665523
 31
0.0
  0
ARC
  5
172
330
1F
100
AcDbEntity
  8
2
  6
Continuous
 62
     7
370
    13
100
AcDbCircle
 10
-290.2639726260416
 20
11.68352228665517
 30
0.0
 40
4.0
100
AcDbArc
 50
359.9999999999983
 51
90.0
  0
ARC
  5
173
330
1F
100
AcDbEntity
  8
2
  6
Continuous
 62
     7
370
    13
100
AcDbCircle
 10
-286.2639726260416
 20
-37.31647771334639
 30
0.0
 40
4.0
100
AcDbArc
 50
180.0000000000017
 51
270.0
  0
ARC
  5
174
330
1F
100
AcDbEntity
  8
2
  6
Continuous
 62
     7
370
    13
100
AcDbCircle
 10
219.7360273739582
 20
11.68352228665517
 30
0.0
 40
4.0
100
AcDbArc
 50
90.0
 51
180.0
  0
ARC
  5
175
330
1F
100
AcDbEntity
  8
2
  6
Continuous
 62
     7
370
    13
100
AcDbCircle
 10
215.7360273739584
 20
-37.31647771334639
 30
0.0
 40
4.0
100
AcDbArc
 50
270.0
 51
359.9999999999984
  0
LINE
  5
176
330
1F
100
AcDbEntity
  8
2
  6
Continuous
 62
     7
370
    13
100
AcDbLine
 10
-290.2639726260429
 20
11.68352228665523
 30
0.0
 11
-290.2639726260416
 21
-37.31647771334652
 31
0.0
  0
LINE
  5
177
330
1F
100
AcDbEntity
  8
2
  6
Continuous
 62
     7
370
    13
100
AcDbLine
 10
-284.2639726260438
 20
-37.31647771334639
 30
0.0
 11
-284.2639726260438
 21
-52.31647771334563
 31
0.0
  0
LINE
  5
178
330
1F
100
AcDbEntity
  8
2
  6
Continuous
 62
     7
370
    13
100
AcDbLine
 10
213.7360273739578
 20
-52.31647771334642
 30
0.0
 11
213.7360273739578
 21
-37.31647771334639
 31
0.0
  0
LINE
  5
179
330
1F
100
AcDbEntity
  8
2
  6
Continuous
 62
     7
370
    13
100
AcDbLine
 10
213.7360273739578
 20
-41.31647771334639
 30
0.0
 11
215.7360273739584
 21
-41.31647771334639
 31
0.0
  0
LINE
  5
17A
330
1F
100
AcDbEntity
  8
2
  6
Continuous
 62
     7
370
    13
100
AcDbLine
 10
-286.2639726260416
 20
-41.31647771334639
 30
0.0
 11
-284.2639726260438
 21
-41.31647771334563
 31
0.0
  0
ARC
  5
17B
330
1F
100
AcDbEntity
  8
2
  6
Continuous
 62
     7
370
    13
100
AcDbCircle
 10
-279.2639726260438
 20
-52.31647771334563
 30
0.0
 40
5.0
100
AcDbArc
 50
180.0
 51
270.0
  0
ARC
  5
17C
330
1F
100
AcDbEntity
  8
2
  6
Continuous
 62
     7
370
    13
100
AcDbCircle
 10
208.7360273739578
 20
-52.31647771334639
 30
0.0
 40
5.0
100
AcDbArc
 50
270.0
 51
359.9999999999997
  0
LINE
  5
17D
330
1F
100
AcDbEntity
  8
2
  6
Continuous
 62
     7
370
    13
100
AcDbLine
 10
-173.2639726260447
 20
-57.31647771334582
 30
0.0
 11
208.7360273739578
 21
-57.31647771334639
 31
0.0
  0
LINE
  5
17E
330
1F
100
AcDbEntity
  8
2
  6
Continuous
 62
     7
370
    13
100
AcDbLine
 10
-232.3642225576857
 20
-57.31647771334571
 30
0.0
 11
-218.2639726260431
 21
-57.31647771334573
 31
0.0
  0
LINE
  5
17F
330
1F
100
AcDbEntity
  8
2
  6
Continuous
 62
     7
370
    13
100
AcDbLine
 10
-279.2639726260438
 20
-57.31647771334563
 30
0.0
 11
-269.2555263284405
 21
-57.31647771334566
 31
0.0
  0
LINE
  5
180
330
1F
100
AcDbEntity
  8
2
  6
Continuous
 62
     7
370
    13
100
AcDbLine
 10
215.7360273739584
 20
-37.31647771334639
 30
0.0
 11
-240.4816250760803
 21
-37.31647771334676
 31
0.0
  0
LINE
  5
181
330
1F
100
AcDbEntity
  8
2
  6
Continuous
 62
     7
370
    13
100
AcDbLine
 10
-278.3640579220378
 20
-37.31647771334639
 30
0.0
 11
-286.2639726260429
 21
-37.31647771334639
 31
0.0
  0
LINE
  5
182
330
1F
100
AcDbEntity
  8
4
  6
Continuous
 62
     7
370
    18
100
AcDbLine
 10
366.0009339370256
 20
66.18352228665354
 30
0.0
 11
404.0009339370256
 21
66.18352228665357
 31
0.0
  0
LINE
  5
183
330
1F
100
AcDbEntity
  8
4
  6
Continuous
 62
     7
370
    18
100
AcDbLine
 10
366.0009339370256
 20
56.18350702786448
 30
0.0
 11
404.0009339370256
 21
56.18350702786451
 31
0.0
  0
LINE
  5
184
330
1F
100
AcDbEntity
  8
4
  6
Continuous
 62
     7
370
    18
100
AcDbLine
 10
364.0009339370256
 20
50.18350702786449
 30
0.0
 11
406.0009339370256
 21
50.18350702786453
 31
0.0
  0
LINE
  5
185
330
1F
100
AcDbEntity
  8
4
  6
Continuous
 62
     7
370
    18
100
AcDbLine
 10
366.0009339370256
 20
66.18352228665354
 30
0.0
 11
366.0009339370256
 21
56.18350702786448
 31
0.0
  0
LINE
  5
186
330
1F
100
AcDbEntity
  8
4
  6
Continuous
 62
     7
370
    18
100
AcDbLine
 10
404.0009339370256
 20
66.18352228665357
 30
0.0
 11
404.0009339370256
 21
56.18350702786451
 31
0.0
  0
LINE
  5
187
330
1F
100
AcDbEntity
  8
4
  6
Continuous
 62
     7
370
    18
100
AcDbLine
 10
364.0009339370256
 20
50.18350702786449
 30
0.0
 11
364.0009339370256
 21
-37.31647771334639
 31
0.0
  0
LINE
  5
188
330
1F
100
AcDbEntity
  8
4
  6
Continuous
 62
     7
370
    18
100
AcDbLine
 10
406.0009339370256
 20
50.18350702786453
 30
0.0
 11
406.0009339370256
 21
-37.31647771334637
 31
0.0
  0
LINE
  5
189
330
1F
100
AcDbEntity
  8
4
  6
Continuous
 62
     7
370
    18
100
AcDbLine
 10
364.0009339370256
 20
-37.31647771334639
 30
0.0
 11
406.0009339370256
 21
-37.31647771334637
 31
0.0
  0
LINE
  5
18A
330
1F
100
AcDbEntity
  8
4
  6
Continuous
 62
     7
370
    18
100
AcDbLine
 10
393.0009339370256
 20
56.18350702786451
 30
0.0
 11
393.0009339370256
 21
50.18350702786451
 31
0.0
  0
LINE
  5
18B
330
1F
100
AcDbEntity
  8
4
  6
Continuous
 62
     7
370
    18
100
AcDbLine
 10
377.0009339370256
 20
56.18350702786451
 30
0.0
 11
377.0009339370256
 21
50.1835070278645
 31
0.0
  0
LINE
  5
18C
330
1F
100
AcDbEntity
  8
4
  6
Continuous
 62
     7
370
    18
100
AcDbLine
 10
395.2271445817635
 20
50.18350702786451
 30
0.0
 11
395.2271445817635
 21
-37.31647771334637
 31
0.0
  0
LINE
  5
18D
330
1F
100
AcDbEntity
  8
4
  6
Continuous
 62
     7
370
    18
100
AcDbLine
 10
396.5009339370256
 20
50.18350702786451
 30
0.0
 11
396.5009339370256
 21
-37.31647771334637
 31
0.0
  0
LINE
  5
18E
330
1F
100
AcDbEntity
  8
4
  6
Continuous
 62
     7
370
    18
100
AcDbLine
 10
393.6621957056775
 20
50.18350702786451
 30
0.0
 11
393.6621957056775
 21
-37.31647771334637
 31
0.0
  0
LINE
  5
18F
330
1F
100
AcDbEntity
  8
4
  6
Continuous
 62
     7
370
    18
100
AcDbLine
 10
384.5009339370256
 20
50.1835070278645
 30
0.0
 11
384.5009339370256
 21
-37.31647771334638
 31
0.0
  0
CIRCLE
  5
190
330
1F
100
AcDbEntity
  8
4
  6
Continuous
 62
     7
370
    18
100
AcDbCircle
 10
371.5009339370256
 20
38.68352037930492
 30
0.0
 40
4.282499313354491
  0
ARC
  5
191
330
1F
100
AcDbEntity
  8
4
  6
Continuous
 62
     7
370
    18
100
AcDbCircle
 10
371.5009339370256
 20
38.68352037930492
 30
0.0
 40
4.863999366760253
100
AcDbArc
 50
284.9999999999992
 51
194.9999775322695
  0
ARC
  5
192
330
1F
100
AcDbEntity
  8
4
  6
Continuous
 62
     7
370
    18
100
AcDbCircle
 10
371.5009339370256
 20
-12.31649297213551
 30
0.0
 40
4.863999366760253
100
AcDbArc
 50
284.9999999999993
 51
194.9999999999999
  0
CIRCLE
  5
193
330
1F
100
AcDbEntity
  8
4
  6
Continuous
 62
     7
370
    18
100
AcDbCircle
 10
371.5009339370256
 20
-12.31649297213551
 30
0.0
 40
4.282499313354491
  0
LINE
  5
194
330
1F
100
AcDbEntity
  8
4
  6
Continuous
 62
     7
370
    18
100
AcDbLine
 10
27.73602737395754
 20
50.18352228665349
 30
0.0
 11
-65.26397262604246
 21
50.18352228665349
 31
0.0
  0
LINE
  5
195
330
1F
100
AcDbEntity
  8
4
  6
Continuous
 62
     7
370
    18
100
AcDbLine
 10
26.73602737395754
 20
56.18352228665348
 30
0.0
 11
-64.26397262604246
 21
56.18352228665348
 31
0.0
  0
LINE
  5
196
330
1F
100
AcDbEntity
  8
4
  6
Continuous
 62
     7
370
    18
100
AcDbLine
 10
26.73602737395754
 20
66.18352228665348
 30
0.0
 11
-64.26397262604246
 21
66.18352228665348
 31
0.0
  0
LINE
  5
197
330
1F
100
AcDbEntity
  8
4
  6
Continuous
 62
     7
370
    18
100
AcDbLine
 10
26.73602737395754
 20
66.18352228665348
 30
0.0
 11
26.73602737395754
 21
56.18352228665348
 31
0.0
  0
LINE
  5
198
330
1F
100
AcDbEntity
  8
4
  6
Continuous
 62
     7
370
    18
100
AcDbLine
 10
-64.26397262604246
 20
66.18352228665348
 30
0.0
 11
-64.26397262604246
 21
56.18352228665348
 31
0.0
  0
LINE
  5
199
330
1F
100
AcDbEntity
  8
4
  6
Continuous
 62
     7
370
    18
100
AcDbLine
 10
27.73602737395754
 20
50.18352228665349
 30
0.0
 11
27.73602737395754
 21
-37.31647771334639
 31
0.0
  0
LINE
  5
19A
330
1F
100
AcDbEntity
  8
4
  6
Continuous
 62
     7
370
    18
100
AcDbLine
 10
-65.26397262604246
 20
50.18352228665349
 30
0.0
 11
-65.26397262604246
 21
-37.31647771334639
 31
0.0
  0
LINE
  5
19B
330
1F
100
AcDbEntity
  8
4
  6
Continuous
 62
     7
370
    18
100
AcDbLine
 10
27.73602737395754
 20
-37.31647771334639
 30
0.0
 11
-65.26397262604246
 21
-37.31647771334639
 31
0.0
  0
LINE
  5
19C
330
1F
100
AcDbEntity
  8
4
  6
Continuous
 62
     7
370
    18
100
AcDbLine
 10
-42.76397262604246
 20
56.18352228665348
 30
0.0
 11
-42.76397262604246
 21
50.18352228665349
 31
0.0
  0
LINE
  5
19D
330
1F
100
AcDbEntity
  8
4
  6
Continuous
 62
     7
370
    18
100
AcDbLine
 10
-58.76397262604246
 20
56.18352228665348
 30
0.0
 11
-58.76397262604246
 21
50.18352228665349
 31
0.0
  0
LINE
  5
19E
330
1F
100
AcDbEntity
  8
4
  6
Continuous
 62
     7
370
    18
100
AcDbLine
 10
21.23602737395754
 20
56.18352228665348
 30
0.0
 11
21.23602737395754
 21
50.18352228665349
 31
0.0
  0
LINE
  5
19F
330
1F
100
AcDbEntity
  8
4
  6
Continuous
 62
     7
370
    18
100
AcDbLine
 10
5.23602737395754
 20
56.18352228665348
 30
0.0
 11
5.23602737395754
 21
50.18352228665349
 31
0.0
  0
LINE
  5
1A0
330
1F
100
AcDbEntity
  8
4
  6
Continuous
 62
     7
370
    18
100
AcDbLine
 10
-12.76397262604246
 20
56.18352228665348
 30
0.0
 11
-12.76397262604246
 21
50.18352228665349
 31
0.0
  0
LINE
  5
1A1
330
1F
100
AcDbEntity
  8
4
  6
Continuous
 62
     7
370
    18
100
AcDbLine
 10
-24.76397262604246
 20
56.18352228665348
 30
0.0
 11
-24.76397262604246
 21
50.18352228665349
 31
0.0
  0
LINE
  5
1A2
330
1F
100
AcDbEntity
  8
4
  6
Continuous
 62
     7
370
    18
100
AcDbLine
 10
-30.30326320287463
 20
50.18352228665349
 30
0.0
 11
-30.30326320287463
 21
-37.31647771334639
 31
0.0
  0
LINE
  5
1A3
330
1F
100
AcDbEntity
  8
4
  6
Continuous
 62
     7
370
    18
100
AcDbLine
 10
-29.26383449193713
 20
50.18352228665349
 30
0.0
 11
-29.26383449193713
 21
-37.31647771334639
 31
0.0
  0
LINE
  5
1A4
330
1F
100
AcDbEntity
  8
4
  6
Continuous
 62
     7
370
    18
100
AcDbLine
 10
-26.78892074615965
 20
50.18352228665349
 30
0.0
 11
-26.78892074615965
 21
-37.31647771334639
 31
0.0
  0
LINE
  5
1A5
330
1F
100
AcDbEntity
  8
4
  6
Continuous
 62
     7
370
    18
100
AcDbLine
 10
-21.7388706732329
 20
50.18352228665349
 30
0.0
 11
-21.7388706732329
 21
-37.31647771334639
 31
0.0
  0
LINE
  5
1A6
330
1F
100
AcDbEntity
  8
4
  6
Continuous
 62
     7
370
    18
100
AcDbLine
 10
-15.7889195013579
 20
50.18352228665349
 30
0.0
 11
-15.7889195013579
 21
-37.31647771334639
 31
0.0
  0
LINE
  5
1A7
330
1F
100
AcDbEntity
  8
4
  6
Continuous
 62
     7
370
    18
100
AcDbLine
 10
-10.73902450592527
 20
50.18352228665349
 30
0.0
 11
-10.73902450592527
 21
-37.31647771334639
 31
0.0
  0
LINE
  5
1A8
330
1F
100
AcDbEntity
  8
4
  6
Continuous
 62
     7
370
    18
100
AcDbLine
 10
-8.26397262604246
 20
50.18352228665349
 30
0.0
 11
-8.26397262604246
 21
-37.31647771334639
 31
0.0
  0
LINE
  5
1A9
330
1F
100
AcDbEntity
  8
4
  6
Continuous
 62
     7
370
    18
100
AcDbLine
 10
-7.224605439545712
 20
50.18352228665349
 30
0.0
 11
-7.224605439545712
 21
-37.31647771334639
 31
0.0
  0
LINE
  5
1AA
330
1F
100
AcDbEntity
  8
4
  6
Continuous
 62
     7
370
    18
100
AcDbLine
 10
4.235620625962611
 20
50.18352228665349
 30
0.0
 11
4.235620625962611
 21
-37.31647771334639
 31
0.0
  0
LINE
  5
1AB
330
1F
100
AcDbEntity
  8
4
  6
Continuous
 62
     7
370
    18
100
AcDbLine
 10
18.73552809312946
 20
50.18352228665349
 30
0.0
 11
18.73552809312946
 21
-37.31647771334639
 31
0.0
  0
LINE
  5
1AC
330
1F
100
AcDbEntity
  8
4
  6
Continuous
 62
     7
370
    18
100
AcDbLine
 10
16.55170733948512
 20
50.18352228665349
 30
0.0
 11
16.55170733948512
 21
-37.31647771334639
 31
0.0
  0
LINE
  5
1AD
330
1F
100
AcDbEntity
  8
4
  6
Continuous
 62
     7
370
    18
100
AcDbLine
 10
6.419441479247325
 20
50.18352228665349
 30
0.0
 11
6.419441479247325
 21
-37.31647771334639
 31
0.0
  0
CIRCLE
  5
1AE
330
1F
100
AcDbEntity
  8
4
  6
Continuous
 62
     7
370
    18
100
AcDbCircle
 10
-1.76397262604246
 20
33.18352228665349
 30
0.0
 40
2.799999237060546
  0
CIRCLE
  5
1AF
330
1F
100
AcDbEntity
  8
4
  6
Continuous
 62
     7
370
    18
100
AcDbCircle
 10
-1.76397262604246
 20
33.18352228665349
 30
0.0
 40
4.75
  0
CIRCLE
  5
1B0
330
1F
100
AcDbEntity
  8
4
  6
Continuous
 62
     7
370
    18
100
AcDbCircle
 10
-1.76397262604246
 20
-10.81647771334652
 30
0.0
 40
2.799999237060546
  0
CIRCLE
  5
1B1
330
1F
100
AcDbEntity
  8
4
  6
Continuous
 62
     7
370
    18
100
AcDbCircle
 10
-1.76397262604246
 20
-10.81647771334652
 30
0.0
 40
4.75
  0
CIRCLE
  5
1B2
330
1F
100
AcDbEntity
  8
4
  6
Continuous
 62
     7
370
    18
100
AcDbCircle
 10
-35.76397262604246
 20
33.18352228665349
 30
0.0
 40
4.75
  0
CIRCLE
  5
1B3
330
1F
100
AcDbEntity
  8
4
  6
Continuous
 62
     7
370
    18
100
AcDbCircle
 10
-35.76397262604246
 20
33.18352228665349
 30
0.0
 40
2.799999237060546
  0
CIRCLE
  5
1B4
330
1F
100
AcDbEntity
  8
4
  6
Continuous
 62
     7
370
    18
100
AcDbCircle
 10
-35.76397262604246
 20
-10.81647771334652
 30
0.0
 40
4.75
  0
CIRCLE
  5
1B5
330
1F
100
AcDbEntity
  8
4
  6
Continuous
 62
     7
370
    18
100
AcDbCircle
 10
-35.76397262604246
 20
-10.81647771334652
 30
0.0
 40
2.799999237060546
  0
CIRCLE
  5
1B6
330
1F
100
AcDbEntity
  8
4
  6
Continuous
 62
     7
370
    18
100
AcDbCircle
 10
-48.76397262604246
 20
38.68352228665349
 30
0.0
 40
4.282499313354491
  0
CIRCLE
  5
1B7
330
1F
100
AcDbEntity
  8
4
  6
Continuous
 62
     7
370
    18
100
AcDbCircle
 10
-48.76397262604246
 20
-28.31647771334639
 30
0.0
 40
4.282499313354491
  0
ARC
  5
1B8
330
1F
100
AcDbEntity
  8
4
  6
Continuous
 62
     7
370
    18
100
AcDbCircle
 10
-48.76397262604246
 20
-28.31647771334639
 30
0.0
 40
4.863999366760253
100
AcDbArc
 50
345.0000000000002
 51
255.0000000000011
  0
ARC
  5
1B9
330
1F
100
AcDbEntity
  8
4
  6
Continuous
 62
     7
370
    18
100
AcDbCircle
 10
-48.76397262604246
 20
38.68352228665349
 30
0.0
 40
4.863999366760253
100
AcDbArc
 50
345.0000000000002
 51
255.0000000000008
  0
LINE
  5
1BA
330
1F
100
AcDbEntity
  8
4
  6
CENTERX2
 62
     3
370
    13
100
AcDbLine
 10
385.0009339370256
 20
69.68352228665354
 30
0.0
 11
385.0009339370256
 21
-47.31647771334638
 31
0.0
  0
LINE
  5
1BB
330
1F
100
AcDbEntity
  8
4
  6
CENTERX2
 62
     3
370
    13
100
AcDbLine
 10
371.5009339370256
 20
-5.452493605375317
 30
0.0
 11
371.5009339370256
 21
-19.18049233889577
 31
0.0
  0
LINE
  5
1BC
330
1F
100
AcDbEntity
  8
4
  6
CENTERX2
 62
     3
370
    13
100
AcDbLine
 10
364.6369345702653
 20
-12.31649297213552
 30
0.0
 11
378.3649333037858
 21
-12.31649297213551
 31
0.0
  0
LINE
  5
1BD
330
1F
100
AcDbEntity
  8
4
  6
CENTERX2
 62
     3
370
    13
100
AcDbLine
 10
362.5009339370256
 20
33.18352228665355
 30
0.0
 11
407.5009339370256
 21
33.18352228665358
 31
0.0
  0
LINE
  5
1BE
330
1F
100
AcDbEntity
  8
4
  6
CENTERX2
 62
     3
370
    13
100
AcDbLine
 10
362.5009339370256
 20
38.18352228665366
 30
0.0
 11
407.5009339370256
 21
38.18352228665369
 31
0.0
  0
LINE
  5
1BF
330
1F
100
AcDbEntity
  8
4
  6
CENTERX2
 62
     3
370
    13
100
AcDbLine
 10
362.5009339370256
 20
-28.31647771334639
 30
0.0
 11
376.2289326705461
 21
-28.31647771334639
 31
0.0
  0
LINE
  5
1C0
330
1F
100
AcDbEntity
  8
4
  6
CENTERX2
 62
     3
370
    13
100
AcDbLine
 10
371.5009339370256
 20
45.5475216534138
 30
0.0
 11
371.5009339370256
 21
31.81952291989329
 31
0.0
  0
LINE
  5
1C1
330
1F
100
AcDbEntity
  8
4
  6
CENTERX2
 62
     3
370
    13
100
AcDbLine
 10
362.5009339370256
 20
38.68352228665355
 30
0.0
 11
378.3649333037858
 21
38.68352228665355
 31
0.0
  0
LINE
  5
1C2
330
1F
100
AcDbEntity
  8
4
  6
CENTERX2
 62
     3
370
    13
100
AcDbLine
 10
4.98602737395754
 20
33.18352228665349
 30
0.0
 11
-8.51397262604246
 21
33.18352228665349
 31
0.0
  0
LINE
  5
1C3
330
1F
100
AcDbEntity
  8
4
  6
CENTERX2
 62
     3
370
    13
100
AcDbLine
 10
-1.76397262604246
 20
39.93352228665349
 30
0.0
 11
-1.76397262604246
 21
26.43352228665349
 31
0.0
  0
LINE
  5
1C4
330
1F
100
AcDbEntity
  8
4
  6
CENTERX2
 62
     3
370
    13
100
AcDbLine
 10
-50.76397262604246
 20
69.68352228665348
 30
0.0
 11
-50.76397262604246
 21
-47.31647771334639
 31
0.0
  0
LINE
  5
1C5
330
1F
100
AcDbEntity
  8
4
  6
CENTERX2
 62
     3
370
    13
100
AcDbLine
 10
13.23602737395754
 20
69.68352228665348
 30
0.0
 11
13.23602737395754
 21
-47.31647771334639
 31
0.0
  0
LINE
  5
1C6
330
1F
100
AcDbEntity
  8
4
  6
CENTERX2
 62
     3
370
    13
100
AcDbLine
 10
-48.76397262604246
 20
-21.45247834658615
 30
0.0
 11
-48.76397262604246
 21
-35.18047708010665
 31
0.0
  0
LINE
  5
1C7
330
1F
100
AcDbEntity
  8
4
  6
CENTERX2
 62
     3
370
    13
100
AcDbLine
 10
-41.89997325928221
 20
-28.31647771334639
 30
0.0
 11
-55.62797199280271
 21
-28.31647771334639
 31
0.0
  0
LINE
  5
1C8
330
1F
100
AcDbEntity
  8
4
  6
CENTERX2
 62
     3
370
    13
100
AcDbLine
 10
-48.76397262604246
 20
45.54752165341375
 30
0.0
 11
-48.76397262604246
 21
31.81952291989324
 31
0.0
  0
LINE
  5
1C9
330
1F
100
AcDbEntity
  8
4
  6
CENTERX2
 62
     3
370
    13
100
AcDbLine
 10
-41.89997325928221
 20
38.68352228665349
 30
0.0
 11
-55.62797199280271
 21
38.68352228665349
 31
0.0
  0
LINE
  5
1CA
330
1F
100
AcDbEntity
  8
4
  6
CENTERX2
 62
     3
370
    13
100
AcDbLine
 10
4.98602737395754
 20
-10.81647771334652
 30
0.0
 11
-8.51397262604246
 21
-10.81647771334652
 31
0.0
  0
LINE
  5
1CB
330
1F
100
AcDbEntity
  8
4
  6
CENTERX2
 62
     3
370
    13
100
AcDbLine
 10
-1.76397262604246
 20
-4.066477713346515
 30
0.0
 11
-1.76397262604246
 21
-17.56647771334652
 31
0.0
  0
LINE
  5
1CC
330
1F
100
AcDbEntity
  8
4
  6
CENTERX2
 62
     3
370
    13
100
AcDbLine
 10
-29.01397262604246
 20
-10.81647771334652
 30
0.0
 11
-42.51397262604246
 21
-10.81647771334652
 31
0.0
  0
LINE
  5
1CD
330
1F
100
AcDbEntity
  8
4
  6
CENTERX2
 62
     3
370
    13
100
AcDbLine
 10
-35.76397262604246
 20
-4.066477713346515
 30
0.0
 11
-35.76397262604246
 21
-17.56647771334652
 31
0.0
  0
LINE
  5
1CE
330
1F
100
AcDbEntity
  8
4
  6
CENTERX2
 62
     3
370
    13
100
AcDbLine
 10
-29.01397262604246
 20
33.18352228665349
 30
0.0
 11
-42.51397262604246
 21
33.18352228665349
 31
0.0
  0
LINE
  5
1CF
330
1F
100
AcDbEntity
  8
4
  6
CENTERX2
 62
     3
370
    13
100
AcDbLine
 10
-35.76397262604246
 20
39.93352228665349
 30
0.0
 11
-35.76397262604246
 21
26.43352228665349
 31
0.0
  0
LINE
  5
1D0
330
1F
100
AcDbEntity
  8
4
  6
CENTERX2
 62
     3
370
    13
100
AcDbLine
 10
5.436027373957359
 20
-24.26647771334644
 30
0.0
 11
5.436027373957359
 21
-14.36647771334658
 31
0.0
  0
LINE
  5
1D1
330
1F
100
AcDbEntity
  8
4
  6
CENTERX2
 62
     3
370
    13
100
AcDbLine
 10
2.436027373957359
 20
-19.3164777133464
 30
0.0
 11
8.436027373957359
 21
-19.3164777133464
 31
0.0
  0
LINE
  5
1D2
330
1F
100
AcDbEntity
  8
4
  6
CENTERX2
 62
     3
370
    13
100
AcDbLine
 10
5.436027373957359
 20
20.23352228665356
 30
0.0
 11
5.436027373957359
 21
30.13352228665342
 31
0.0
  0
LINE
  5
1D3
330
1F
100
AcDbEntity
  8
4
  6
CENTERX2
 62
     3
370
    13
100
AcDbLine
 10
2.436027373957359
 20
25.18352228665349
 30
0.0
 11
8.436027373957359
 21
25.18352228665349
 31
0.0
  0
LINE
  5
1D4
330
1F
100
AcDbEntity
  8
3
  6
PHANTOM
 62
   140
370
    13
100
AcDbLine
 10
372.0009339370256
 20
85.23564262708884
 30
0.0
 11
372.0009339370256
 21
96.68352228665354
 31
0.0
  0
LINE
  5
1D5
330
1F
100
AcDbEntity
  8
3
  6
PHANTOM
 62
   140
370
    13
100
AcDbLine
 10
377.8751026012271
 20
89.18352228665354
 30
0.0
 11
380.1009339370255
 21
89.18352228665354
 31
0.0
  0
LINE
  5
1D6
330
1F
100
AcDbEntity
  8
3
  6
PHANTOM
 62
   140
370
    13
100
AcDbLine
 10
378.1009339370255
 20
89.18352228665354
 30
0.0
 11
365.9009339370252
 21
89.18352228665354
 31
0.0
  0
LINE
  5
1D7
330
1F
100
AcDbEntity
  8
3
  6
PHANTOM
 62
   140
370
    13
100
AcDbLine
 10
377.0009339370256
 20
96.28352228665345
 30
0.0
 11
377.0009339370256
 21
90.68352228665354
 31
0.0
  0
LINE
  5
1D8
330
1F
100
AcDbEntity
  8
3
  6
PHANTOM
 62
   140
370
    13
100
AcDbLine
 10
376.3081136139979
 20
96.68352228665354
 30
0.0
 11
377.0009339370256
 21
96.28352228665345
 31
0.0
  0
LINE
  5
1D9
330
1F
100
AcDbEntity
  8
3
  6
PHANTOM
 62
   140
370
    13
100
AcDbLine
 10
367.6937542600529
 20
96.68352228665354
 30
0.0
 11
376.3081136139979
 21
96.68352228665354
 31
0.0
  0
LINE
  5
1DA
330
1F
100
AcDbEntity
  8
3
  6
PHANTOM
 62
   140
370
    13
100
AcDbLine
 10
367.0009339370256
 20
96.28352228665345
 30
0.0
 11
367.6937542600529
 21
96.68352228665354
 31
0.0
  0
LINE
  5
1DB
330
1F
100
AcDbEntity
  8
3
  6
PHANTOM
 62
   140
370
    13
100
AcDbLine
 10
367.0009339370256
 20
90.68352228665354
 30
0.0
 11
367.0009339370256
 21
96.28352228665345
 31
0.0
  0
LINE
  5
1DC
330
1F
100
AcDbEntity
  8
3
  6
PHANTOM
 62
   140
370
    13
100
AcDbLine
 10
378.1009339370255
 20
90.68352228665354
 30
0.0
 11
378.1009339370255
 21
89.18352228665354
 31
0.0
  0
LINE
  5
1DD
330
1F
100
AcDbEntity
  8
3
  6
PHANTOM
 62
   140
370
    13
100
AcDbLine
 10
365.9009339370252
 20
90.68352228665354
 30
0.0
 11
378.1009339370255
 21
90.68352228665354
 31
0.0
  0
LINE
  5
1DE
330
1F
100
AcDbEntity
  8
3
  6
PHANTOM
 62
   140
370
    13
100
AcDbLine
 10
365.9009339370252
 20
89.18352228665354
 30
0.0
 11
365.9009339370252
 21
90.68352228665354
 31
0.0
  0
LINE
  5
1DF
330
1F
100
AcDbEntity
  8
3
  6
PHANTOM
 62
   140
370
    13
100
AcDbLine
 10
389.5009339370283
 20
141.1835222866534
 30
0.0
 11
389.5009339370283
 21
126.0751635884747
 31
0.0
  0
LINE
  5
1E0
330
1F
100
AcDbEntity
  8
3
  6
PHANTOM
 62
   140
370
    13
100
AcDbLine
 10
386.5009339370283
 20
141.1835222866534
 30
0.0
 11
386.5009339370283
 21
126.0751635884747
 31
0.0
  0
LINE
  5
1E1
330
1F
100
AcDbEntity
  8
3
  6
PHANTOM
 62
   140
370
    13
100
AcDbLine
 10
389.5009339370283
 20
141.1835222866534
 30
0.0
 11
386.5009339370283
 21
141.1835222866534
 31
0.0
  0
LINE
  5
1E2
330
1F
100
AcDbEntity
  8
3
  6
PHANTOM
 62
   140
370
    13
100
AcDbLine
 10
365.5009339370256
 20
89.18352228665354
 30
0.0
 11
365.5009339370256
 21
86.18352228665354
 31
0.0
  0
LINE
  5
1E3
330
1F
100
AcDbEntity
  8
3
  6
PHANTOM
 62
   140
370
    13
100
AcDbLine
 10
365.5009339370256
 20
89.18352228665354
 30
0.0
 11
365.8004858359479
 21
89.18352228665354
 31
0.0
  0
LINE
  5
1E4
330
1F
100
AcDbEntity
  8
3
  6
PHANTOM
 62
   140
370
    13
100
AcDbLine
 10
365.5009339370256
 20
86.18352228665354
 30
0.0
 11
380.1009339370255
 21
86.18352228665354
 31
0.0
  0
LINE
  5
1E5
330
1F
100
AcDbEntity
  8
3
  6
PHANTOM
 62
   140
370
    13
100
AcDbLine
 10
178.2360273739559
 20
141.1835222866534
 30
0.0
 11
181.2360273739559
 21
138.1835222866536
 31
0.0
  0
LINE
  5
1E6
330
1F
100
AcDbEntity
  8
3
  6
PHANTOM
 62
   140
370
    13
100
AcDbLine
 10
-215.7639726260441
 20
141.1835222866534
 30
0.0
 11
-218.7639726260443
 21
138.1835222866534
 31
0.0
  0
LINE
  5
1E7
330
1F
100
AcDbEntity
  8
3
  6
PHANTOM
 62
   140
370
    13
100
AcDbLine
 10
-59.26397262604405
 20
89.18352228665354
 30
0.0
 11
-57.76397262604405
 21
90.68352228665354
 31
0.0
  0
LINE
  5
1E8
330
1F
100
AcDbEntity
  8
3
  6
PHANTOM
 62
   140
370
    13
100
AcDbLine
 10
-57.76397262604405
 20
89.18352228665354
 30
0.0
 11
-56.26397262604405
 21
90.68352228665354
 31
0.0
  0
LINE
  5
1E9
330
1F
100
AcDbEntity
  8
3
  6
PHANTOM
 62
   140
370
    13
100
AcDbLine
 10
-52.76397262604405
 20
96.28352228665342
 30
0.0
 11
-52.76397262604405
 21
90.68352228665354
 31
0.0
  0
LINE
  5
1EA
330
1F
100
AcDbEntity
  8
3
  6
PHANTOM
 62
   140
370
    13
100
AcDbLine
 10
-53.45679294907154
 20
96.68352228665354
 30
0.0
 11
-52.76397262604405
 21
96.28352228665342
 31
0.0
  0
LINE
  5
1EB
330
1F
100
AcDbEntity
  8
3
  6
PHANTOM
 62
   140
370
    13
100
AcDbLine
 10
-62.07115230301656
 20
96.68352228665354
 30
0.0
 11
-53.45679294907154
 21
96.68352228665354
 31
0.0
  0
LINE
  5
1EC
330
1F
100
AcDbEntity
  8
3
  6
PHANTOM
 62
   140
370
    13
100
AcDbLine
 10
-62.76397262604405
 20
96.28352228665342
 30
0.0
 11
-62.07115230301656
 21
96.68352228665354
 31
0.0
  0
LINE
  5
1ED
330
1F
100
AcDbEntity
  8
3
  6
PHANTOM
 62
   140
370
    13
100
AcDbLine
 10
-62.76397262604405
 20
90.68352228665354
 30
0.0
 11
-62.76397262604405
 21
96.28352228665342
 31
0.0
  0
LINE
  5
1EE
330
1F
100
AcDbEntity
  8
3
  6
PHANTOM
 62
   140
370
    13
100
AcDbLine
 10
-51.66397262604391
 20
90.68352228665354
 30
0.0
 11
-51.66397262604391
 21
89.18352228665354
 31
0.0
  0
LINE
  5
1EF
330
1F
100
AcDbEntity
  8
3
  6
PHANTOM
 62
   140
370
    13
100
AcDbLine
 10
-63.86397262604419
 20
90.68352228665354
 30
0.0
 11
-51.66397262604391
 21
90.68352228665354
 31
0.0
  0
LINE
  5
1F0
330
1F
100
AcDbEntity
  8
3
  6
PHANTOM
 62
   140
370
    13
100
AcDbLine
 10
-63.86397262604419
 20
89.18352228665354
 30
0.0
 11
-63.86397262604419
 21
90.68352228665354
 31
0.0
  0
LINE
  5
1F1
330
1F
100
AcDbEntity
  8
3
  6
PHANTOM
 62
   140
370
    13
100
AcDbLine
 10
18.73602737395595
 20
89.18352228665354
 30
0.0
 11
20.23602737395595
 21
90.68352228665354
 31
0.0
  0
LINE
  5
1F2
330
1F
100
AcDbEntity
  8
3
  6
PHANTOM
 62
   140
370
    13
100
AcDbLine
 10
20.23602737395595
 20
89.18352228665354
 30
0.0
 11
21.73602737395595
 21
90.68352228665354
 31
0.0
  0
LINE
  5
1F3
330
1F
100
AcDbEntity
  8
3
  6
PHANTOM
 62
   140
370
    13
100
AcDbLine
 10
25.23602737395595
 20
96.28352228665342
 30
0.0
 11
25.23602737395595
 21
90.68352228665354
 31
0.0
  0
LINE
  5
1F4
330
1F
100
AcDbEntity
  8
3
  6
PHANTOM
 62
   140
370
    13
100
AcDbLine
 10
24.54320705092846
 20
96.68352228665354
 30
0.0
 11
25.23602737395595
 21
96.28352228665342
 31
0.0
  0
LINE
  5
1F5
330
1F
100
AcDbEntity
  8
3
  6
PHANTOM
 62
   140
370
    13
100
AcDbLine
 10
15.92884769698344
 20
96.68352228665354
 30
0.0
 11
24.54320705092846
 21
96.68352228665354
 31
0.0
  0
LINE
  5
1F6
330
1F
100
AcDbEntity
  8
3
  6
PHANTOM
 62
   140
370
    13
100
AcDbLine
 10
15.23602737395595
 20
96.28352228665342
 30
0.0
 11
15.92884769698344
 21
96.68352228665354
 31
0.0
  0
LINE
  5
1F7
330
1F
100
AcDbEntity
  8
3
  6
PHANTOM
 62
   140
370
    13
100
AcDbLine
 10
15.23602737395595
 20
90.68352228665354
 30
0.0
 11
15.23602737395595
 21
96.28352228665342
 31
0.0
  0
LINE
  5
1F8
330
1F
100
AcDbEntity
  8
3
  6
PHANTOM
 62
   140
370
    13
100
AcDbLine
 10
26.33602737395586
 20
90.68352228665354
 30
0.0
 11
26.33602737395586
 21
89.18352228665354
 31
0.0
  0
LINE
  5
1F9
330
1F
100
AcDbEntity
  8
3
  6
PHANTOM
 62
   140
370
    13
100
AcDbLine
 10
14.13602737395581
 20
90.68352228665354
 30
0.0
 11
26.33602737395586
 21
90.68352228665354
 31
0.0
  0
LINE
  5
1FA
330
1F
100
AcDbEntity
  8
3
  6
PHANTOM
 62
   140
370
    13
100
AcDbLine
 10
14.13602737395581
 20
89.18352228665354
 30
0.0
 11
14.13602737395581
 21
90.68352228665354
 31
0.0
  0
LINE
  5
1FB
330
1F
100
AcDbEntity
  8
3
  6
PHANTOM
 62
   140
370
    13
100
AcDbLine
 10
-218.7639726260443
 20
133.1528468221273
 30
0.0
 11
-218.7639726260443
 21
138.1835222866534
 31
0.0
  0
LINE
  5
1FC
330
1F
100
AcDbEntity
  8
3
  6
PHANTOM
 62
   140
370
    13
100
AcDbLine
 10
181.2360273739559
 20
138.1835222866536
 30
0.0
 11
181.2360273739559
 21
133.1528468221273
 31
0.0
  0
LINE
  5
1FD
330
1F
100
AcDbEntity
  8
3
  6
PHANTOM
 62
   140
370
    13
100
AcDbLine
 10
178.2360273739559
 20
141.1835222866534
 30
0.0
 11
-199.3274617347329
 21
141.1835222866534
 31
0.0
  0
LINE
  5
1FE
330
1F
100
AcDbEntity
  8
3
  6
PHANTOM
 62
   140
370
    13
100
AcDbLine
 10
-188.3274617347331
 20
141.1835222866534
 30
0.0
 11
-215.7639726260441
 21
141.1835222866534
 31
0.0
  0
LINE
  5
1FF
330
1F
100
AcDbEntity
  8
3
  6
CENTERX2
 62
     3
370
    13
100
AcDbLine
 10
388.0009339370283
 20
144.9532843792592
 30
0.0
 11
388.0009339370283
 21
123.8014479745878
 31
0.0
  0
LINE
  5
200
330
1F
100
AcDbEntity
  8
3
  6
CENTERX2
 62
     3
370
    13
100
AcDbLine
 10
372.0009339370256
 20
76.68352228665354
 30
0.0
 11
372.0009339370256
 21
63.66505216733306
 31
0.0
  0
LINE
  5
201
330
1F
100
AcDbEntity
  8
3
  6
CENTERX2
 62
     3
370
    13
100
AcDbLine
 10
-57.76397262604405
 20
82.23564262708878
 30
0.0
 11
-57.76397262604405
 21
96.68352228665354
 31
0.0
  0
LINE
  5
202
330
1F
100
AcDbEntity
  8
3
  6
CENTERX2
 62
     3
370
    13
100
AcDbLine
 10
20.23602737395595
 20
82.23564262708878
 30
0.0
 11
20.23602737395595
 21
96.68352228665354
 31
0.0
  0
LINE
  5
203
330
1F
100
AcDbEntity
  8
3
  6
CENTERX2
 62
     3
370
    13
100
AcDbLine
 10
-57.76397262604405
 20
63.23564262708878
 30
0.0
 11
-57.76397262604405
 21
76.68352228665348
 31
0.0
  0
LINE
  5
204
330
1F
100
AcDbEntity
  8
3
  6
CENTERX2
 62
     3
370
    13
100
AcDbLine
 10
20.23602737395595
 20
63.23564262708878
 30
0.0
 11
20.23602737395595
 21
76.68352228665348
 31
0.0
  0
LINE
  5
205
330
1F
100
AcDbEntity
  8
3
  6
CENTERX2
 62
     3
370
    13
100
AcDbLine
 10
372.0009339370256
 20
79.12352228665354
 30
0.0
 11
372.0009339370256
 21
66.74352228665357
 31
0.0
  0
LINE
  5
206
330
1F
100
AcDbEntity
  8
3
  6
Continuous
 62
     3
370
    13
100
AcDbLine
 10
26.33602737395586
 20
70.68352228665348
 30
0.0
 11
26.33602737395586
 21
69.18352228665348
 31
0.0
  0
LINE
  5
207
330
1F
100
AcDbEntity
  8
3
  6
Continuous
 62
     3
370
    13
100
AcDbLine
 10
-59.26397262604405
 20
69.18352228665348
 30
0.0
 11
-57.76397262604405
 21
70.68352228665348
 31
0.0
  0
LINE
  5
208
330
1F
100
AcDbEntity
  8
3
  6
Continuous
 62
     3
370
    13
100
AcDbLine
 10
-57.76397262604405
 20
69.18352228665348
 30
0.0
 11
-56.26397262604405
 21
70.68352228665348
 31
0.0
  0
LINE
  5
209
330
1F
100
AcDbEntity
  8
3
  6
Continuous
 62
     3
370
    13
100
AcDbLine
 10
-52.76397262604405
 20
76.28352228665337
 30
0.0
 11
-62.76397262604405
 21
76.28352228665337
 31
0.0
  0
LINE
  5
20A
330
1F
100
AcDbEntity
  8
3
  6
Continuous
 62
     3
370
    13
100
AcDbLine
 10
-52.76397262604405
 20
76.28352228665337
 30
0.0
 11
-52.76397262604405
 21
70.68352228665348
 31
0.0
  0
LINE
  5
20B
330
1F
100
AcDbEntity
  8
3
  6
Continuous
 62
     3
370
    13
100
AcDbLine
 10
-53.45679294907154
 20
76.68352228665348
 30
0.0
 11
-52.76397262604405
 21
76.28352228665337
 31
0.0
  0
LINE
  5
20C
330
1F
100
AcDbEntity
  8
3
  6
Continuous
 62
     3
370
    13
100
AcDbLine
 10
-62.07115230301656
 20
76.68352228665348
 30
0.0
 11
-53.45679294907154
 21
76.68352228665348
 31
0.0
  0
LINE
  5
20D
330
1F
100
AcDbEntity
  8
3
  6
Continuous
 62
     3
370
    13
100
AcDbLine
 10
-62.76397262604405
 20
76.28352228665337
 30
0.0
 11
-62.07115230301656
 21
76.68352228665348
 31
0.0
  0
LINE
  5
20E
330
1F
100
AcDbEntity
  8
3
  6
Continuous
 62
     3
370
    13
100
AcDbLine
 10
-62.76397262604405
 20
70.68352228665348
 30
0.0
 11
-62.76397262604405
 21
76.28352228665337
 31
0.0
  0
LINE
  5
20F
330
1F
100
AcDbEntity
  8
3
  6
Continuous
 62
     3
370
    13
100
AcDbLine
 10
-51.66397262604391
 20
70.68352228665348
 30
0.0
 11
-51.66397262604391
 21
69.18352228665348
 31
0.0
  0
LINE
  5
210
330
1F
100
AcDbEntity
  8
3
  6
Continuous
 62
     3
370
    13
100
AcDbLine
 10
-63.86397262604419
 20
70.68352228665348
 30
0.0
 11
-51.66397262604391
 21
70.68352228665348
 31
0.0
  0
LINE
  5
211
330
1F
100
AcDbEntity
  8
3
  6
Continuous
 62
     3
370
    13
100
AcDbLine
 10
-63.86397262604419
 20
69.18352228665348
 30
0.0
 11
-63.86397262604419
 21
70.68352228665348
 31
0.0
  0
LINE
  5
212
330
1F
100
AcDbEntity
  8
3
  6
Continuous
 62
     3
370
    13
100
AcDbLine
 10
18.73602737395595
 20
69.18352228665348
 30
0.0
 11
20.23602737395595
 21
70.68352228665348
 31
0.0
  0
LINE
  5
213
330
1F
100
AcDbEntity
  8
3
  6
Continuous
 62
     3
370
    13
100
AcDbLine
 10
20.23602737395595
 20
69.18352228665348
 30
0.0
 11
21.73602737395595
 21
70.68352228665348
 31
0.0
  0
LINE
  5
214
330
1F
100
AcDbEntity
  8
3
  6
Continuous
 62
     3
370
    13
100
AcDbLine
 10
25.23602737395595
 20
76.28352228665337
 30
0.0
 11
15.23602737395595
 21
76.28352228665337
 31
0.0
  0
LINE
  5
215
330
1F
100
AcDbEntity
  8
3
  6
Continuous
 62
     3
370
    13
100
AcDbLine
 10
25.23602737395595
 20
76.28352228665337
 30
0.0
 11
25.23602737395595
 21
70.68352228665348
 31
0.0
  0
LINE
  5
216
330
1F
100
AcDbEntity
  8
3
  6
Continuous
 62
     3
370
    13
100
AcDbLine
 10
24.54320705092846
 20
76.68352228665348
 30
0.0
 11
25.23602737395595
 21
76.28352228665337
 31
0.0
  0
LINE
  5
217
330
1F
100
AcDbEntity
  8
3
  6
Continuous
 62
     3
370
    13
100
AcDbLine
 10
15.92884769698344
 20
76.68352228665348
 30
0.0
 11
24.54320705092846
 21
76.68352228665348
 31
0.0
  0
LINE
  5
218
330
1F
100
AcDbEntity
  8
3
  6
Continuous
 62
     3
370
    13
100
AcDbLine
 10
15.23602737395595
 20
76.28352228665337
 30
0.0
 11
15.92884769698344
 21
76.68352228665348
 31
0.0
  0
LINE
  5
219
330
1F
100
AcDbEntity
  8
3
  6
Continuous
 62
     3
370
    13
100
AcDbLine
 10
15.23602737395595
 20
70.68352228665348
 30
0.0
 11
15.23602737395595
 21
76.28352228665337
 31
0.0
  0
LINE
  5
21A
330
1F
100
AcDbEntity
  8
3
  6
Continuous
 62
     3
370
    13
100
AcDbLine
 10
14.13602737395581
 20
70.68352228665348
 30
0.0
 11
26.33602737395586
 21
70.68352228665348
 31
0.0
  0
LINE
  5
21B
330
1F
100
AcDbEntity
  8
3
  6
Continuous
 62
     3
370
    13
100
AcDbLine
 10
14.13602737395581
 20
69.18352228665348
 30
0.0
 11
14.13602737395581
 21
70.68352228665348
 31
0.0
  0
LINE
  5
21C
330
1F
100
AcDbEntity
  8
3
  6
Continuous
 62
     7
370
    13
100
AcDbLine
 10
386.5009339370256
 20
70.68352228665354
 30
0.0
 11
386.5009339370256
 21
116.1835222866535
 31
0.0
  0
LINE
  5
21D
330
1F
100
AcDbEntity
  8
3
  6
Continuous
 62
     7
370
    13
100
AcDbLine
 10
389.5009339370256
 20
116.1835222866535
 30
0.0
 11
386.5009339370256
 21
116.1835222866535
 31
0.0
  0
LINE
  5
21E
330
1F
100
AcDbEntity
  8
3
  6
Continuous
 62
     7
370
    13
100
AcDbLine
 10
389.5009339370256
 20
70.68352228665354
 30
0.0
 11
389.5009339370256
 21
116.1835222866535
 31
0.0
  0
LINE
  5
21F
330
1F
100
AcDbEntity
  8
3
  6
Continuous
 62
     7
370
    13
100
AcDbLine
 10
365.5009339370256
 20
66.18352228665354
 30
0.0
 11
385.0009339370256
 21
66.18352228665357
 31
0.0
  0
LINE
  5
220
330
1F
100
AcDbEntity
  8
3
  6
Continuous
 62
     7
370
    13
100
AcDbLine
 10
365.5009339370256
 20
69.18352228665354
 30
0.0
 11
365.5009339370256
 21
66.18352228665354
 31
0.0
  0
LINE
  5
221
330
1F
100
AcDbEntity
  8
3
  6
Continuous
 62
     7
370
    13
100
AcDbLine
 10
365.5009339370256
 20
69.18352228665354
 30
0.0
 11
385.0009339370256
 21
69.18352228665354
 31
0.0
  0
ARC
  5
222
330
1F
100
AcDbEntity
  8
3
  6
Continuous
 62
     7
370
    13
100
AcDbCircle
 10
385.0009339370256
 20
70.68352228665354
 30
0.0
 40
1.5
100
AcDbArc
 50
270.0000000000001
 51
0.0000000000000509
  0
ARC
  5
223
330
1F
100
AcDbEntity
  8
3
  6
Continuous
 62
     7
370
    13
100
AcDbCircle
 10
385.0009339370256
 20
70.68352228665354
 30
0.0
 40
4.5
100
AcDbArc
 50
270.0000000000001
 51
0.0000000000000509
  0
LINE
  5
224
330
1F
100
AcDbEntity
  8
3
  6
Continuous
 62
     7
370
    13
100
AcDbLine
 10
181.2360273739559
 20
66.18352228665348
 30
0.0
 11
-218.7639726260438
 21
66.18352228665348
 31
0.0
  0
LINE
  5
225
330
1F
100
AcDbEntity
  8
3
  6
Continuous
 62
     7
370
    13
100
AcDbLine
 10
-215.7639726260441
 20
116.1835222866535
 30
0.0
 11
-218.7639726260443
 21
113.1835222866535
 31
0.0
  0
LINE
  5
226
330
1F
100
AcDbEntity
  8
3
  6
Continuous
 62
     7
370
    13
100
AcDbLine
 10
178.2360273739559
 20
116.1835222866535
 30
0.0
 11
-215.7639726260441
 21
116.1835222866535
 31
0.0
  0
LINE
  5
227
330
1F
100
AcDbEntity
  8
3
  6
Continuous
 62
     7
370
    13
100
AcDbLine
 10
-218.7639726260438
 20
66.18352228665348
 30
0.0
 11
-218.7639726260443
 21
113.1835222866535
 31
0.0
  0
LINE
  5
228
330
1F
100
AcDbEntity
  8
3
  6
Continuous
 62
     7
370
    13
100
AcDbLine
 10
181.2360273739559
 20
66.18352228665348
 30
0.0
 11
181.2360273739559
 21
113.1835222866535
 31
0.0
  0
LINE
  5
229
330
1F
100
AcDbEntity
  8
3
  6
Continuous
 62
     7
370
    13
100
AcDbLine
 10
178.2360273739559
 20
116.1835222866535
 30
0.0
 11
181.2360273739559
 21
113.1835222866535
 31
0.0
  0
LINE
  5
22A
330
1F
100
AcDbEntity
  8
3
  6
Continuous
 62
     7
370
    13
100
AcDbLine
 10
-218.7639726260441
 20
69.18352228665348
 30
0.0
 11
181.2360273739559
 21
69.18352228665348
 31
0.0
  0
LINE
  5
22B
330
1F
100
AcDbEntity
  8
3
  6
Continuous
 62
     7
370
    13
100
AcDbLine
 10
367.0009339370256
 20
70.68352228665354
 30
0.0
 11
367.0009339370256
 21
76.08352228665358
 31
0.0
  0
LINE
  5
22C
330
1F
100
AcDbEntity
  8
3
  6
Continuous
 62
     7
370
    13
100
AcDbLine
 10
367.0009339370256
 20
76.08352228665358
 30
0.0
 11
368.0401644215669
 21
76.68352228665354
 31
0.0
  0
LINE
  5
22D
330
1F
100
AcDbEntity
  8
3
  6
Continuous
 62
     7
370
    13
100
AcDbLine
 10
367.0009339370256
 20
76.08352228665358
 30
0.0
 11
377.0009339370256
 21
76.08352228665358
 31
0.0
  0
LINE
  5
22E
330
1F
100
AcDbEntity
  8
3
  6
Continuous
 62
     7
370
    13
100
AcDbLine
 10
377.0009339370256
 20
70.68352228665354
 30
0.0
 11
377.0009339370256
 21
76.08352228665358
 31
0.0
  0
LINE
  5
22F
330
1F
100
AcDbEntity
  8
3
  6
Continuous
 62
     7
370
    13
100
AcDbLine
 10
377.0009339370256
 20
76.08352228665358
 30
0.0
 11
375.9617034524842
 21
76.68352228665354
 31
0.0
  0
LINE
  5
230
330
1F
100
AcDbEntity
  8
3
  6
Continuous
 62
     7
370
    13
100
AcDbLine
 10
368.0401644215669
 20
76.68352228665354
 30
0.0
 11
375.9617034524842
 21
76.68352228665354
 31
0.0
  0
LINE
  5
231
330
1F
100
AcDbEntity
  8
3
  6
Continuous
 62
     7
370
    13
100
AcDbLine
 10
378.1009339370255
 20
70.68352228665354
 30
0.0
 11
378.1009339370255
 21
69.18352228665354
 31
0.0
  0
LINE
  5
232
330
1F
100
AcDbEntity
  8
3
  6
Continuous
 62
     7
370
    13
100
AcDbLine
 10
365.9009339370255
 20
69.18352228665354
 30
0.0
 11
378.1009339370255
 21
69.18352228665354
 31
0.0
  0
LINE
  5
233
330
1F
100
AcDbEntity
  8
3
  6
Continuous
 62
     7
370
    13
100
AcDbLine
 10
365.9009339370255
 20
69.18352228665354
 30
0.0
 11
365.9009339370255
 21
70.68352228665354
 31
0.0
  0
LINE
  5
234
330
1F
100
AcDbEntity
  8
3
  6
Continuous
 62
     7
370
    13
100
AcDbLine
 10
365.9009339370255
 20
70.68352228665354
 30
0.0
 11
378.1009339370255
 21
70.68352228665354
 31
0.0
  0
LINE
  5
235
330
1F
100
AcDbEntity
  8
3
  6
Continuous
 62
     7
370
    13
100
AcDbLine
 10
372.0009339370256
 20
70.68352228665354
 30
0.0
 11
371.5990101483787
 21
69.18352228665354
 31
0.0
  0
LINE
  5
236
330
1F
100
AcDbEntity
  8
3
  6
Continuous
 62
     7
370
    13
100
AcDbLine
 10
372.402857725672
 20
70.68352228665354
 30
0.0
 11
372.0009339370256
 21
69.18352228665354
 31
0.0
  0
POINT
  5
237
330
1F
100
AcDbEntity
  8
5
  6
Continuous
 62
     7
100
AcDbPoint
 10
344.3009071088998
 20
-88.02040587398476
 30
0.0
  0
CIRCLE
  5
238
330
1F
100
AcDbEntity
  8
5
  6
Continuous
 62
     7
370
    18
100
AcDbCircle
 10
338.5007133222787
 20
-84.02031432125041
 30
0.0
 40
1.049999952316284
  0
CIRCLE
  5
239
330
1F
100
AcDbEntity
  8
5
  6
Continuous
 62
     7
370
    18
100
AcDbCircle
 10
350.1007117963998
 20
-84.02031432125038
 30
0.0
 40
1.049999952316284
  0
LINE
  5
23A
330
1F
100
AcDbEntity
  8
5
  6
Continuous
 62
     7
370
    18
100
AcDbLine
 10
352.6009559370248
 20
-67.52019225093788
 30
0.0
 11
352.6009559370248
 21
-88.02040587398476
 31
0.0
  0
LINE
  5
23B
330
1F
100
AcDbEntity
  8
5
  6
Continuous
 62
     7
370
    18
100
AcDbLine
 10
352.6009559370248
 20
-67.52019225093788
 30
0.0
 11
351.8009071088998
 21
-67.52019225093788
 31
0.0
  0
LINE
  5
23C
330
1F
100
AcDbEntity
  8
5
  6
Continuous
 62
     7
370
    18
100
AcDbLine
 10
336.0008582807748
 20
-88.02040587398479
 30
0.0
 11
352.6009559370248
 21
-88.02040587398476
 31
0.0
  0
LINE
  5
23D
330
1F
100
AcDbEntity
  8
5
  6
Continuous
 62
     7
370
    18
100
AcDbLine
 10
336.0008582807743
 20
-67.52019225093814
 30
0.0
 11
336.0008582807748
 21
-88.02040587398501
 31
0.0
  0
LINE
  5
23E
330
1F
100
AcDbEntity
  8
5
  6
Continuous
 62
     7
370
    18
100
AcDbLine
 10
336.0008582807748
 20
-67.52019225093791
 30
0.0
 11
336.8009071088998
 21
-67.52019225093791
 31
0.0
  0
LINE
  5
23F
330
1F
100
AcDbEntity
  8
5
  6
Continuous
 62
     7
370
    18
100
AcDbLine
 10
351.8007163740365
 20
-86.62031422588295
 30
0.0
 11
336.8007125593392
 21
-86.62031422588298
 31
0.0
  0
LINE
  5
240
330
1F
100
AcDbEntity
  8
5
  6
Continuous
 62
     7
370
    18
100
AcDbLine
 10
351.8007163740365
 20
-62.72031508418983
 30
0.0
 11
351.8007163740365
 21
-86.62031422588295
 31
0.0
  0
LINE
  5
241
330
1F
100
AcDbEntity
  8
5
  6
Continuous
 62
     7
370
    18
100
AcDbLine
 10
336.8007125593392
 20
-62.72031508418986
 30
0.0
 11
351.8007163740365
 21
-62.72031508418983
 31
0.0
  0
LINE
  5
242
330
1F
100
AcDbEntity
  8
5
  6
Continuous
 62
     7
370
    18
100
AcDbLine
 10
336.8007125593392
 20
-62.72031508418986
 30
0.0
 11
336.8007125593392
 21
-86.62031422588298
 31
0.0
  0
LINE
  5
243
330
1F
100
AcDbEntity
  8
5
  6
Continuous
 62
     7
370
    18
100
AcDbLine
 10
340.2007102705209
 20
-86.62031422588298
 30
0.0
 11
340.2007102705209
 21
-81.02031432125041
 31
0.0
  0
LINE
  5
244
330
1F
100
AcDbEntity
  8
5
  6
Continuous
 62
     7
370
    18
100
AcDbLine
 10
348.4007148481576
 20
-86.62031422588295
 30
0.0
 11
348.4007148481576
 21
-81.02031432125038
 31
0.0
  0
LINE
  5
245
330
1F
100
AcDbEntity
  8
5
  6
Continuous
 62
     7
370
    18
100
AcDbLine
 10
338.5007133222787
 20
-79.32031451198527
 30
0.0
 11
336.8007125593392
 21
-79.32031451198527
 31
0.0
  0
ARC
  5
246
330
1F
100
AcDbEntity
  8
5
  6
Continuous
 62
     7
370
    18
100
AcDbCircle
 10
338.5007133222787
 20
-81.02031432125041
 30
0.0
 40
1.700000047683715
100
AcDbArc
 50
359.9999949910444
 51
89.99999749552174
  0
LINE
  5
247
330
1F
100
AcDbEntity
  8
5
  6
Continuous
 62
     7
370
    18
100
AcDbLine
 10
351.8007163740365
 20
-79.32031451198525
 30
0.0
 11
350.1007117963998
 21
-79.32031451198525
 31
0.0
  0
ARC
  5
248
330
1F
100
AcDbEntity
  8
5
  6
Continuous
 62
     7
370
    18
100
AcDbCircle
 10
350.1007117963998
 20
-81.02031432125038
 30
0.0
 40
1.700000047683715
100
AcDbArc
 50
89.99999749552175
 51
180.0
  0
LINE
  5
249
330
1F
100
AcDbEntity
  8
5
  6
Continuous
 62
     7
370
    18
100
AcDbLine
 10
336.8690945013998
 20
-58.80285936127298
 30
0.0
 11
336.8007151229092
 21
-62.7203115407744
 31
0.0
  0
LINE
  5
24A
330
1F
100
AcDbEntity
  8
5
  6
Continuous
 62
     7
370
    18
100
AcDbLine
 10
336.8690945013998
 20
-58.80285936127298
 30
0.0
 11
337.0939601987145
 21
-45.92031150131533
 31
0.0
  0
LINE
  5
24B
330
1F
100
AcDbEntity
  8
5
  6
Continuous
 62
     7
370
    18
100
AcDbLine
 10
351.7323339140232
 20
-58.80286037256046
 30
0.0
 11
351.5074681834205
 21
-45.92031060554466
 31
0.0
  0
LINE
  5
24C
330
1F
100
AcDbEntity
  8
5
  6
Continuous
 62
     7
370
    18
100
AcDbLine
 10
351.7323339140232
 20
-58.80286037256046
 30
0.0
 11
351.8007132925138
 21
-62.72031255206188
 31
0.0
  0
LINE
  5
24D
330
1F
100
AcDbEntity
  8
5
  6
Continuous
 62
     7
370
    18
100
AcDbLine
 10
346.2007102705209
 20
-58.72031508418986
 30
0.0
 11
342.4007148481576
 21
-58.72031508418986
 31
0.0
  0
LINE
  5
24E
330
1F
100
AcDbEntity
  8
5
  6
Continuous
 62
     7
370
    18
100
AcDbLine
 10
346.2007102705209
 20
-58.72031508418986
 30
0.0
 11
346.2007102705209
 21
-45.92031584712931
 31
0.0
  0
LINE
  5
24F
330
1F
100
AcDbEntity
  8
5
  6
Continuous
 62
     7
370
    18
100
AcDbLine
 10
342.4007148481576
 20
-45.92031584712931
 30
0.0
 11
342.4007148481576
 21
-58.72031508418986
 31
0.0
  0
LINE
  5
250
330
1F
100
AcDbEntity
  8
5
  6
Continuous
 62
     7
370
    18
100
AcDbLine
 10
336.8007125593392
 20
-54.6203127953715
 30
0.0
 11
336.942138645765
 21
-54.6203127953715
 31
0.0
  0
LINE
  5
251
330
1F
100
AcDbEntity
  8
5
  6
Continuous
 62
     7
370
    18
100
AcDbLine
 10
336.8007125593392
 20
-54.6203127953715
 30
0.0
 11
336.8007125593392
 21
-53.1203127953715
 31
0.0
  0
LINE
  5
252
330
1F
100
AcDbEntity
  8
5
  6
Continuous
 62
     7
370
    18
100
AcDbLine
 10
351.8007163740365
 20
-54.62031279537148
 30
0.0
 11
351.8007163740365
 21
-53.12031279537148
 31
0.0
  0
LINE
  5
253
330
1F
100
AcDbEntity
  8
5
  6
Continuous
 62
     7
370
    18
100
AcDbLine
 10
351.6592902876107
 20
-54.62031279537148
 30
0.0
 11
351.8007163740365
 21
-54.62031279537148
 31
0.0
  0
CIRCLE
  5
254
330
1F
100
AcDbEntity
  8
5
  6
Continuous
 62
     7
370
    18
100
AcDbCircle
 10
344.3007163740365
 20
-34.6204234215922
 30
0.0
 40
7.5
  0
LINE
  5
255
330
1F
100
AcDbEntity
  8
5
  6
Continuous
 62
     7
370
    18
100
AcDbLine
 10
336.400951359388
 20
-27.1204234215922
 30
0.0
 11
352.2002296186654
 21
-27.12042342159219
 31
0.0
  0
CIRCLE
  5
256
330
1F
100
AcDbEntity
  8
5
  6
Continuous
 62
     7
370
    18
100
AcDbCircle
 10
344.3007163740365
 20
-34.6204234215922
 30
0.0
 40
4.0
  0
LINE
  5
257
330
1F
100
AcDbEntity
  8
5
  6
Continuous
 62
     7
370
    18
100
AcDbLine
 10
344.3008601761646
 20
-27.12040500620692
 30
0.0
 11
338.0777421340279
 21
-30.43444719797021
 31
0.0
  0
LINE
  5
258
330
1F
100
AcDbEntity
  8
5
  6
Continuous
 62
     7
370
    18
100
AcDbLine
 10
338.0775746579523
 20
-30.43448138335334
 30
0.0
 11
338.077330517274
 21
-38.80606341460334
 31
0.0
  0
LINE
  5
259
330
1F
100
AcDbEntity
  8
5
  6
Continuous
 62
     7
370
    18
100
AcDbLine
 10
338.0776782571163
 20
-38.80617407209611
 30
0.0
 11
344.3009390837803
 21
-42.12046760426274
 31
0.0
  0
LINE
  5
25A
330
1F
100
AcDbEntity
  8
5
  6
Continuous
 62
     7
370
    18
100
AcDbLine
 10
344.3010549774169
 20
-42.12029403086235
 30
0.0
 11
350.5245312909517
 21
-38.80588573783933
 31
0.0
  0
LINE
  5
25B
330
1F
100
AcDbEntity
  8
5
  6
Continuous
 62
     7
370
    18
100
AcDbLine
 10
350.5243158529563
 20
-38.8060329019201
 30
0.0
 11
350.5240717122781
 21
-30.4344508706701
 31
0.0
  0
LINE
  5
25C
330
1F
100
AcDbEntity
  8
5
  6
Continuous
 62
     7
370
    18
100
AcDbLine
 10
350.5238740285315
 20
-30.43458375231483
 30
0.0
 11
344.3007559863947
 21
-27.12054156055155
 31
0.0
  0
LINE
  5
25D
330
1F
100
AcDbEntity
  8
5
  6
Continuous
 62
     7
370
    18
100
AcDbLine
 10
336.9682235456673
 20
-53.12042723628947
 30
0.0
 11
336.6914291120736
 21
-53.12042723628947
 31
0.0
  0
LINE
  5
25E
330
1F
100
AcDbEntity
  8
5
  6
Continuous
 62
     7
370
    18
100
AcDbLine
 10
336.6914221717632
 20
-53.12043268811676
 30
0.0
 11
336.4009503997947
 21
-27.12042265721693
 31
0.0
  0
LINE
  5
25F
330
1F
100
AcDbEntity
  8
5
  6
Continuous
 62
     7
370
    18
100
AcDbLine
 10
351.9279029115426
 20
-53.12042940368638
 30
0.0
 11
352.2002299027397
 21
-27.12042089927063
 31
0.0
  0
LINE
  5
260
330
1F
100
AcDbEntity
  8
5
  6
Continuous
 62
     7
370
    18
100
AcDbLine
 10
351.9278526045052
 20
-53.12042723628945
 30
0.0
 11
351.633113834974
 21
-53.12042723628945
 31
0.0
  0
LINE
  5
261
330
1F
100
AcDbEntity
  8
5
  6
Continuous
 62
     7
370
    18
100
AcDbLine
 10
351.5074653364388
 20
-45.9203158471293
 30
0.0
 11
337.0939597822396
 21
-45.92031584712931
 31
0.0
  0
LINE
  5
262
330
1F
100
AcDbEntity
  8
5
  6
Continuous
 62
     7
370
    18
100
AcDbLine
 10
348.9694578047126
 20
-82.15185889445131
 30
0.0
 11
351.2322074231095
 21
-79.88910927605461
 31
0.0
  0
LINE
  5
263
330
1F
100
AcDbEntity
  8
5
  6
Continuous
 62
     7
370
    18
100
AcDbLine
 10
350.8079174139518
 20
-81.72761271801521
 30
0.0
 11
349.3937040127591
 21
-80.31339931682253
 31
0.0
  0
CIRCLE
  5
264
330
1F
100
AcDbEntity
  8
5
  6
Continuous
 62
     7
370
    18
100
AcDbCircle
 10
350.1007117963998
 20
-81.02031432125038
 30
0.0
 40
1.600000023841857
  0
LINE
  5
265
330
1F
100
AcDbEntity
  8
5
  6
Continuous
 62
     7
370
    18
100
AcDbLine
 10
337.3694593228699
 20
-82.15186003241622
 30
0.0
 11
339.6322097420568
 21
-79.88910961322945
 31
0.0
  0
LINE
  5
266
330
1F
100
AcDbEntity
  8
5
  6
Continuous
 62
     7
370
    18
100
AcDbLine
 10
339.2079189426456
 20
-81.72761260211139
 30
0.0
 11
337.7937060788252
 21
-80.31339973829104
 31
0.0
  0
CIRCLE
  5
267
330
1F
100
AcDbEntity
  8
5
  6
Continuous
 62
     7
370
    18
100
AcDbCircle
 10
338.5007133222787
 20
-81.02031432125041
 30
0.0
 40
1.600000023841857
  0
LINE
  5
268
330
1F
100
AcDbEntity
  8
5
  6
Continuous
 62
     7
370
    18
100
AcDbLine
 10
342.6027026886966
 20
-58.12549316638803
 30
0.0
 11
342.5507414937981
 21
-58.71941589756359
 31
0.0
  0
LINE
  5
269
330
1F
100
AcDbEntity
  8
5
  6
Continuous
 62
     7
370
    18
100
AcDbLine
 10
345.9985965429457
 20
-58.12603229362077
 30
0.0
 11
346.0505583774882
 21
-58.71995498926056
 31
0.0
  0
ARC
  5
26A
330
1F
100
AcDbEntity
  8
5
  6
Continuous
 62
     7
370
    18
100
AcDbCircle
 10
344.3006553388802
 20
-61.92057143184611
 30
0.0
 40
4.5
100
AcDbArc
 50
73.61233828028855
 51
106.3876840315118
  0
ARC
  5
26B
330
1F
100
AcDbEntity
  8
5
  6
Continuous
 62
     7
370
    18
100
AcDbCircle
 10
343.2003135420052
 20
-58.17887221309611
 30
0.0
 40
0.6000000238418579
100
AcDbArc
 50
106.3877386730268
 51
175.000100890741
  0
ARC
  5
26C
330
1F
100
AcDbEntity
  8
5
  6
Continuous
 62
     7
370
    18
100
AcDbCircle
 10
345.4009971357552
 20
-58.17887221309611
 30
0.0
 40
0.6000000238418579
100
AcDbArc
 50
4.999953010685416
 51
73.61226997839796
  0
POINT
  5
26D
330
1F
100
AcDbEntity
  8
5
  6
Continuous
 62
     7
100
AcDbPoint
 10
-195.7639723135451
 20
-65.02061961846188
 30
0.0
  0
POINT
  5
26E
330
1F
100
AcDbEntity
  8
5
  6
Continuous
 62
     7
100
AcDbPoint
 10
-195.7639723135451
 20
-65.02061961846188
 30
0.0
  0
POINT
  5
26F
330
1F
100
AcDbEntity
  8
5
  6
Continuous
 62
     7
100
AcDbPoint
 10
-195.7639723135451
 20
-65.02061961846188
 30
0.0
  0
POINT
  5
270
330
1F
100
AcDbEntity
  8
5
  6
Continuous
 62
     7
100
AcDbPoint
 10
-195.7639723135451
 20
-65.02061961846188
 30
0.0
  0
POINT
  5
271
330
1F
100
AcDbEntity
  8
5
  6
Continuous
 62
     7
100
AcDbPoint
 10
-195.7639723135451
 20
-65.02061961846188
 30
0.0
  0
POINT
  5
272
330
1F
100
AcDbEntity
  8
5
  6
Continuous
 62
     7
100
AcDbPoint
 10
-195.7639723135451
 20
-65.02061961846188
 30
0.0
  0
LINE
  5
273
330
1F
100
AcDbEntity
  8
5
  6
Continuous
 62
     7
370
    18
100
AcDbLine
 10
-172.4641676260451
 20
-65.02061961846188
 30
0.0
 11
-172.4641676260451
 21
-88.02061961846188
 31
0.0
  0
LINE
  5
274
330
1F
100
AcDbEntity
  8
5
  6
Continuous
 62
     7
370
    18
100
AcDbLine
 10
-180.6641187979203
 20
-65.02061961846188
 30
0.0
 11
-180.6641187979203
 21
-88.02061961846188
 31
0.0
  0
LINE
  5
275
330
1F
100
AcDbEntity
  8
5
  6
Continuous
 62
     7
370
    18
100
AcDbLine
 10
-174.8643141104201
 20
-65.02061961846188
 30
0.0
 11
-174.8643141104201
 21
-88.02061961846188
 31
0.0
  0
LINE
  5
276
330
1F
100
AcDbEntity
  8
5
  6
Continuous
 62
     7
370
    18
100
AcDbLine
 10
-163.4641676260451
 20
-88.02061961846188
 30
0.0
 11
-232.4247389151076
 21
-88.02061961846188
 31
0.0
  0
LINE
  5
277
330
1F
100
AcDbEntity
  8
5
  6
Continuous
 62
     7
370
    18
100
AcDbLine
 10
-163.4641676260451
 20
-65.02061961846188
 30
0.0
 11
-176.1029005362013
 21
-65.02061961846188
 31
0.0
  0
LINE
  5
278
330
1F
100
AcDbEntity
  8
5
  6
Continuous
 62
     7
370
    18
100
AcDbLine
 10
-163.4641676260451
 20
-65.02061961846188
 30
0.0
 11
-163.4641676260451
 21
-88.02061961846188
 31
0.0
  0
LINE
  5
279
330
1F
100
AcDbEntity
  8
5
  6
Continuous
 62
     7
370
    18
100
AcDbLine
 10
-165.0640211416701
 20
-84.00819896416506
 30
0.0
 11
-165.0640211416701
 21
-86.03307079033699
 31
0.0
  0
LINE
  5
27A
330
1F
100
AcDbEntity
  8
5
  6
Continuous
 62
     7
370
    18
100
AcDbLine
 10
-165.0640211416701
 20
-84.00819896416506
 30
0.0
 11
-163.4641676260451
 21
-84.00819896416506
 31
0.0
  0
LINE
  5
27B
330
1F
100
AcDbEntity
  8
5
  6
Continuous
 62
     7
370
    18
100
AcDbLine
 10
-165.0640211416701
 20
-86.03307079033699
 30
0.0
 11
-163.4641676260451
 21
-86.03307079033699
 31
0.0
  0
LINE
  5
27C
330
1F
100
AcDbEntity
  8
5
  6
Continuous
 62
     7
370
    18
100
AcDbLine
 10
-219.0640211416701
 20
-65.02061961846188
 30
0.0
 11
-219.0640211416701
 21
-88.02061961846188
 31
0.0
  0
LINE
  5
27D
330
1F
100
AcDbEntity
  8
5
  6
Continuous
 62
     7
370
    18
100
AcDbLine
 10
-221.5639387274402
 20
-65.0204276561828
 30
0.0
 11
-222.4749868160995
 21
-61.62034992966547
 31
0.0
  0
LINE
  5
27E
330
1F
100
AcDbEntity
  8
5
  6
Continuous
 62
     7
370
    18
100
AcDbLine
 10
-232.3642072988973
 20
-61.62070201592321
 30
0.0
 11
-222.4751539541708
 21
-61.62070201592333
 31
0.0
  0
LINE
  5
27F
330
1F
100
AcDbEntity
  8
5
  6
Continuous
 62
     7
370
    18
100
AcDbLine
 10
-232.6123609854201
 20
-86.62068675713381
 30
0.0
 11
-232.6123609854201
 21
-87.32039378838381
 31
0.0
  0
LINE
  5
280
330
1F
100
AcDbEntity
  8
5
  6
Continuous
 62
     7
370
    18
100
AcDbLine
 10
-232.612272920476
 20
-87.3206873527899
 30
0.0
 11
-232.4247302150286
 21
-88.02060625224216
 31
0.0
  0
LINE
  5
281
330
1F
100
AcDbEntity
  8
5
  6
Continuous
 62
     7
370
    18
100
AcDbLine
 10
-230.539118797921
 20
-61.02060435967338
 30
0.0
 11
-226.388972313546
 21
-61.0206043596735
 31
0.0
  0
LINE
  5
282
330
1F
100
AcDbEntity
  8
5
  6
Continuous
 62
     7
370
    18
100
AcDbLine
 10
-226.3889723135451
 20
-61.02060435967287
 30
0.0
 11
-226.3889723135451
 21
-61.62070201592287
 31
0.0
  0
LINE
  5
283
330
1F
100
AcDbEntity
  8
5
  6
Continuous
 62
     7
370
    18
100
AcDbLine
 10
-230.5391187979201
 20
-61.02060435967287
 30
0.0
 11
-230.5391187979201
 21
-61.62070201592287
 31
0.0
  0
LINE
  5
284
330
1F
100
AcDbEntity
  8
5
  6
Continuous
 62
     7
370
    18
100
AcDbLine
 10
-230.0639601065141
 20
-66.84331248955569
 30
0.0
 11
-232.2639723135451
 21
-66.84331248955569
 31
0.0
  0
LINE
  5
285
330
1F
100
AcDbEntity
  8
5
  6
Continuous
 62
     7
370
    18
100
AcDbLine
 10
-230.0639601065141
 20
-69.19795726494631
 30
0.0
 11
-232.2639723135451
 21
-69.19795726494631
 31
0.0
  0
LINE
  5
286
330
1F
100
AcDbEntity
  8
5
  6
Continuous
 62
     7
370
    18
100
AcDbLine
 10
-230.0639601065141
 20
-66.84331248955569
 30
0.0
 11
-230.0639601065141
 21
-69.19795726494631
 31
0.0
  0
ARC
  5
287
330
1F
100
AcDbEntity
  8
5
  6
Continuous
 62
     7
370
    18
100
AcDbCircle
 10
-225.7639112783888
 20
-68.02061961846188
 30
0.0
 40
6.0
100
AcDbArc
 50
168.6839859654545
 51
191.3161729501288
  0
LINE
  5
288
330
1F
100
AcDbEntity
  8
5
  6
Continuous
 62
     7
370
    18
100
AcDbLine
 10
-268.5688276602248
 20
-86.62062572197756
 30
0.0
 11
-232.2642164541701
 21
-86.62062572197756
 31
0.0
  0
LINE
  5
289
330
1F
100
AcDbEntity
  8
5
  6
Continuous
 62
     7
370
    18
100
AcDbLine
 10
-232.2642164541701
 20
-62.72063182549319
 30
0.0
 11
-269.2642164541701
 21
-62.72063182549319
 31
0.0
  0
ARC
  5
28A
330
1F
100
AcDbEntity
  8
5
  6
Continuous
 62
     7
370
    18
100
AcDbCircle
 10
-149.2642164541701
 20
-73.72063182549319
 30
0.0
 40
120.0
100
AcDbArc
 50
182.215355692437
 51
186.17122367479
  0
ARC
  5
28B
330
1F
100
AcDbEntity
  8
5
  6
Continuous
 62
     7
370
    18
100
AcDbCircle
 10
-149.2642164541701
 20
-73.72063182549319
 30
0.0
 40
120.0
100
AcDbArc
 50
180.0000111559001
 51
182.215355692437
  0
LINE
  5
28C
330
1F
100
AcDbEntity
  8
5
  6
Continuous
 62
     7
370
    18
100
AcDbLine
 10
-269.2642164541701
 20
-58.82062267021975
 30
0.0
 11
-269.2642164541701
 21
-73.72063182549319
 31
0.0
  0
LINE
  5
28D
330
1F
100
AcDbEntity
  8
5
  6
Continuous
 62
     7
370
    18
100
AcDbLine
 10
-269.1334791494826
 20
-79.32060741143069
 30
0.0
 11
-249.9642134024123
 21
-79.32060741143069
 31
0.0
  0
LINE
  5
28E
330
1F
100
AcDbEntity
  8
5
  6
Continuous
 62
     7
370
    18
100
AcDbLine
 10
-232.2642164541701
 20
-86.62062572197756
 30
0.0
 11
-232.2642164541701
 21
-62.72063182549319
 31
0.0
  0
LINE
  5
28F
330
1F
100
AcDbEntity
  8
5
  6
Continuous
 62
     7
370
    18
100
AcDbLine
 10
-232.3642225576857
 20
-52.92062877373537
 30
0.0
 11
-240.6616773916701
 21
-52.92062877373537
 31
0.0
  0
LINE
  5
290
330
1F
100
AcDbEntity
  8
5
  6
Continuous
 62
     7
370
    18
100
AcDbLine
 10
-236.2642164541701
 20
-58.42062877373537
 30
0.0
 11
-232.3642225576857
 21
-58.42062877373537
 31
0.0
  0
LINE
  5
291
330
1F
100
AcDbEntity
  8
5
  6
Continuous
 62
     7
370
    18
100
AcDbLine
 10
-236.2642164541701
 20
-52.92062877373537
 30
0.0
 11
-236.2642164541701
 21
-58.42062877373537
 31
0.0
  0
LINE
  5
292
330
1F
100
AcDbEntity
  8
5
  6
Continuous
 62
     7
370
    18
100
AcDbLine
 10
-232.3642225576857
 20
-62.72063182549319
 30
0.0
 11
-232.3642225576857
 21
-52.92062877373537
 31
0.0
  0
ARC
  5
293
330
1F
100
AcDbEntity
  8
5
  6
Continuous
 62
     7
370
    18
100
AcDbCircle
 10
-149.2642164541701
 20
-58.82062267021975
 30
0.0
 40
120.0
100
AcDbArc
 50
173.8287849766318
 51
179.9999974955217
  0
LINE
  5
294
330
1F
100
AcDbEntity
  8
5
  6
Continuous
 62
     7
370
    18
100
AcDbLine
 10
-268.5688276602248
 20
-45.92062877373537
 30
0.0
 11
-256.1084623648146
 21
-45.92062877373537
 31
0.0
  0
LINE
  5
295
330
1F
100
AcDbEntity
  8
5
  6
Continuous
 62
     7
370
    18
100
AcDbLine
 10
-249.9642134024123
 20
-86.62062572197756
 30
0.0
 11
-249.9642134024123
 21
-79.32060741143069
 31
0.0
  0
LINE
  5
296
330
1F
100
AcDbEntity
  8
5
  6
Continuous
 62
     7
370
    18
100
AcDbLine
 10
-255.8640664662043
 20
-52.12062116964717
 30
0.0
 11
-255.8640679149444
 21
-54.62062116964717
 31
0.0
  0
LINE
  5
297
330
1F
100
AcDbEntity
  8
5
  6
Continuous
 62
     7
370
    18
100
AcDbLine
 10
-240.6641081285245
 20
-52.92061777093176
 30
0.0
 11
-240.6641091136748
 21
-54.62062997796301
 31
0.0
  0
LINE
  5
298
330
1F
100
AcDbEntity
  8
5
  6
Continuous
 62
     7
370
    18
100
AcDbLine
 10
-240.6641091136748
 20
-54.62062997796301
 30
0.0
 11
-255.8640679149444
 21
-54.62062116964717
 31
0.0
  0
LINE
  5
299
330
1F
100
AcDbEntity
  8
5
  6
Continuous
 62
     7
370
    18
100
AcDbLine
 10
-268.3640519788037
 20
-27.12061392594678
 30
0.0
 11
-268.364060671244
 21
-42.12061392594678
 31
0.0
  0
LINE
  5
29A
330
1F
100
AcDbEntity
  8
5
  6
Continuous
 62
     7
370
    18
100
AcDbLine
 10
-240.3639680554636
 20
-27.12063015188432
 30
0.0
 11
-268.3640519788037
 21
-27.12061392594678
 31
0.0
  0
LINE
  5
29B
330
1F
100
AcDbEntity
  8
5
  6
Continuous
 62
     7
370
    18
100
AcDbLine
 10
-255.9907086204628
 20
-42.12062109625521
 30
0.0
 11
-268.364060671244
 21
-42.12061392594678
 31
0.0
  0
LINE
  5
29C
330
1F
100
AcDbEntity
  8
5
  6
Continuous
 62
     7
370
    18
100
AcDbLine
 10
-278.3640519788037
 20
-27.12060813098646
 30
0.0
 11
-278.364060671244
 21
-42.12060813098635
 31
0.0
  0
LINE
  5
29D
330
1F
100
AcDbEntity
  8
5
  6
Continuous
 62
     7
370
    18
100
AcDbLine
 10
-273.3640519788037
 20
-27.12061102846662
 30
0.0
 11
-273.364060671244
 21
-42.12061102846662
 31
0.0
  0
LINE
  5
29E
330
1F
100
AcDbEntity
  8
5
  6
Continuous
 62
     7
370
    18
100
AcDbLine
 10
-273.364060671244
 20
-42.12061102846662
 30
0.0
 11
-278.364060671244
 21
-42.12060813098635
 31
0.0
  0
LINE
  5
29F
330
1F
100
AcDbEntity
  8
5
  6
Continuous
 62
     7
370
    18
100
AcDbLine
 10
-268.3640523262748
 20
-27.72022330094678
 30
0.0
 11
-272.1641011543998
 21
-27.72022109883341
 31
0.0
  0
LINE
  5
2A0
330
1F
100
AcDbEntity
  8
5
  6
Continuous
 62
     7
370
    18
100
AcDbLine
 10
-268.3640603234899
 20
-41.52051626969678
 30
0.0
 11
-272.1641091516149
 21
-41.52051406758341
 31
0.0
  0
LINE
  5
2A1
330
1F
100
AcDbEntity
  8
5
  6
Continuous
 62
     7
370
    18
100
AcDbLine
 10
-272.1641011543998
 20
-27.72022109883341
 30
0.0
 11
-272.1641091516149
 21
-41.52051406758341
 31
0.0
  0
LINE
  5
2A2
330
1F
100
AcDbEntity
  8
5
  6
Continuous
 62
     7
370
    18
100
AcDbLine
 10
-273.3640538992329
 20
-30.43457587221662
 30
0.0
 11
-278.3640538992329
 21
-30.43457297473646
 31
0.0
  0
LINE
  5
2A3
330
1F
100
AcDbEntity
  8
5
  6
Continuous
 62
     7
370
    18
100
AcDbLine
 10
-273.3640519788037
 20
-27.12061102846662
 30
0.0
 11
-278.3640519788037
 21
-27.12060813098646
 31
0.0
  0
LINE
  5
2A4
330
1F
100
AcDbEntity
  8
5
  6
Continuous
 62
     7
370
    18
100
AcDbLine
 10
-240.6616753277094
 20
-52.92068155094461
 30
0.0
 11
-240.363979496208
 21
-27.12062632011982
 31
0.0
  0
LINE
  5
2A5
330
1F
100
AcDbEntity
  8
5
  6
Continuous
 62
     7
370
    18
100
AcDbLine
 10
-255.8753491308494
 20
-52.1206995844363
 30
0.0
 11
-256.1637853647271
 21
-27.12062465800177
 31
0.0
  0
LINE
  5
2A6
330
1F
100
AcDbEntity
  8
5
  6
Continuous
 62
     7
370
    18
100
AcDbLine
 10
-273.3640587505315
 20
-38.80615790346662
 30
0.0
 11
-278.3640587505315
 21
-38.80615500598635
 31
0.0
  0
LINE
  5
2A7
330
1F
100
AcDbEntity
  8
5
  6
Continuous
 62
     7
370
    18
100
AcDbLine
 10
-268.3640598888678
 20
-40.77051626969678
 30
0.0
 11
-273.3640598888678
 21
-40.77051337221662
 31
0.0
  0
LINE
  5
2A8
330
1F
100
AcDbEntity
  8
5
  6
Continuous
 62
     7
370
    18
100
AcDbLine
 10
-268.3640527608968
 20
-28.47022330094678
 30
0.0
 11
-273.3640527608968
 21
-28.47022040346662
 31
0.0
  0
LINE
  5
2A9
330
1F
100
AcDbEntity
  8
5
  6
Continuous
 62
     7
370
    18
100
AcDbLine
 10
-240.664108244431
 20
-53.12062997796301
 30
0.0
 11
-255.8640670457005
 21
-53.12062116964717
 31
0.0
  0
LINE
  5
2AA
330
1F
100
AcDbEntity
  8
5
  6
Continuous
 62
     7
370
    18
100
AcDbLine
 10
-255.8640144860831
 20
-52.92064775959961
 30
0.0
 11
-256.1084607767841
 21
-45.92062676806535
 31
0.0
  0
ARC
  5
2AB
330
1F
100
AcDbEntity
  8
5
  6
Continuous
 62
     7
370
    18
100
AcDbCircle
 10
-247.2562666250685
 20
-81.02061961846188
 30
0.0
 40
3.807692289352416
100
AcDbArc
 50
166.3481159108235
 51
193.6523162123268
  0
LINE
  5
2AC
330
1F
100
AcDbEntity
  8
5
  6
Continuous
 62
     7
370
    18
100
AcDbLine
 10
-250.160263462478
 20
-82.6034917286914
 30
0.0
 11
-249.9642653130161
 21
-82.62063934479137
 31
0.0
  0
ARC
  5
2AD
330
1F
100
AcDbEntity
  8
5
  6
Continuous
 62
     7
370
    18
100
AcDbCircle
 10
-250.0817976309279
 20
-80.33434032158699
 30
0.0
 40
0.899999976158142
100
AcDbArc
 50
94.99936561441385
 51
166.3482525146074
  0
ARC
  5
2AE
330
1F
100
AcDbEntity
  8
5
  6
Continuous
 62
     7
370
    18
100
AcDbCircle
 10
-250.0817976309279
 20
-81.70692943291506
 30
0.0
 40
0.899999976158142
100
AcDbArc
 50
193.6526850425428
 51
265.0005448530396
  0
LINE
  5
2AF
330
1F
100
AcDbEntity
  8
5
  6
Continuous
 62
     7
370
    18
100
AcDbLine
 10
-250.1602522830528
 20
-79.43775527115146
 30
0.0
 11
-249.9642237321407
 21
-79.42060499526936
 31
0.0
  0
LINE
  5
2B0
330
1F
100
AcDbEntity
  8
5
  6
Continuous
 62
     7
370
    18
100
AcDbLine
 10
-232.5667129792407
 20
-57.82683235964959
 30
0.0
 11
-232.5147517843423
 21
-58.42075509082515
 31
0.0
  0
LINE
  5
2B1
330
1F
100
AcDbEntity
  8
5
  6
Continuous
 62
     7
370
    18
100
AcDbLine
 10
-235.9626078208692
 20
-57.82643011034657
 30
0.0
 11
-236.0145696554116
 21
-58.42035280598629
 31
0.0
  0
ARC
  5
2B2
330
1F
100
AcDbEntity
  8
5
  6
Continuous
 62
     7
370
    18
100
AcDbCircle
 10
-234.2641706778029
 20
-61.62080882744631
 30
0.0
 40
4.5
100
AcDbArc
 50
73.61227749183182
 51
106.3876232430546
  0
ARC
  5
2B3
330
1F
100
AcDbEntity
  8
5
  6
Continuous
 62
     7
370
    18
100
AcDbCircle
 10
-233.1638288809279
 20
-57.8791096086963
 30
0.0
 40
0.6000000238418579
100
AcDbArc
 50
4.999885392040726
 51
73.6122228503186
  0
ARC
  5
2B4
330
1F
100
AcDbEntity
  8
5
  6
Continuous
 62
     7
370
    18
100
AcDbCircle
 10
-235.3645124746779
 20
-57.87914012627437
 30
0.0
 40
0.6000000238418579
100
AcDbArc
 50
106.3876815270347
 51
175.0000531362623
  0
LINE
  5
2B5
330
1F
100
AcDbEntity
  8
5
  6
Continuous
 62
     7
370
    18
100
AcDbLine
 10
-217.163371117256
 20
-65.02061961846188
 30
0.0
 11
-217.163371117256
 21
-88.02061961846188
 31
0.0
  0
LINE
  5
2B6
330
1F
100
AcDbEntity
  8
5
  6
Continuous
 62
     7
370
    18
100
AcDbLine
 10
-210.3640699697951
 20
-65.02061961846188
 30
0.0
 11
-210.3640699697951
 21
-88.02061961846188
 31
0.0
  0
LINE
  5
2B7
330
1F
100
AcDbEntity
  8
5
  6
Continuous
 62
     7
370
    18
100
AcDbLine
 10
-179.4255323721388
 20
-65.02061961846188
 30
0.0
 11
-221.5638990713576
 21
-65.02061961846188
 31
0.0
  0
LINE
  5
2B8
330
1F
100
AcDbEntity
  8
5
  6
Continuous
 62
     7
370
    18
100
AcDbLine
 10
-174.8643141104201
 20
-67.52061961846188
 30
0.0
 11
-180.6641187979201
 21
-67.52061961846188
 31
0.0
  0
LINE
  5
2B9
330
1F
100
AcDbEntity
  8
5
  6
Continuous
 62
     7
370
    18
100
AcDbLine
 10
-175.0142164541701
 20
-66.82060741143069
 30
0.0
 11
-180.5142164541701
 21
-66.82060741143069
 31
0.0
  0
ARC
  5
2BA
330
1F
100
AcDbEntity
  8
5
  6
Continuous
 62
     7
370
    18
100
AcDbCircle
 10
-177.7642164541701
 20
-71.82060741143069
 30
0.0
 40
7.0
100
AcDbArc
 50
73.74297999178903
 51
106.2570300261248
  0
LINE
  5
2BB
330
1F
100
AcDbEntity
  8
5
  6
Continuous
 62
     7
370
    18
100
AcDbLine
 10
-175.0882712554774
 20
-65.97338431785029
 30
0.0
 11
-175.014148431346
 21
-66.8206119321214
 31
0.0
  0
LINE
  5
2BC
330
1F
100
AcDbEntity
  8
5
  6
Continuous
 62
     7
370
    18
100
AcDbLine
 10
-180.4399653423495
 20
-65.97339556505189
 30
0.0
 11
-180.5140894963722
 21
-66.82063838004821
 31
0.0
  0
ARC
  5
2BD
330
1F
100
AcDbEntity
  8
5
  6
Continuous
 62
     7
370
    18
100
AcDbCircle
 10
-176.0845289541701
 20
-66.06053661064938
 30
0.0
 40
1.0
100
AcDbArc
 50
4.999946863738881
 51
73.74292535027712
  0
ARC
  5
2BE
330
1F
100
AcDbEntity
  8
5
  6
Continuous
 62
     7
370
    18
100
AcDbCircle
 10
-179.4439039541701
 20
-66.06053661064938
 30
0.0
 40
1.0
100
AcDbArc
 50
106.257088310102
 51
175.0000463060718
  0
LINE
  5
2BF
330
1F
100
AcDbEntity
  8
5
  6
Continuous
 62
     7
370
    18
100
AcDbLine
 10
-175.0142164541701
 20
-66.82060741143069
 30
0.0
 11
-175.0142164541701
 21
-67.52061961846188
 31
0.0
  0
LINE
  5
2C0
330
1F
100
AcDbEntity
  8
5
  6
Continuous
 62
     7
370
    18
100
AcDbLine
 10
-180.5142164541701
 20
-66.82060741143069
 30
0.0
 11
-180.5142164541701
 21
-67.52061961846188
 31
0.0
  0
LINE
  5
2C1
330
1F
100
AcDbEntity
  8
5
  6
Continuous
 62
     7
370
    18
100
AcDbLine
 10
-216.2634243976952
 20
-57.32068370537616
 30
0.0
 11
-216.2634243976952
 21
-65.02061961846188
 31
0.0
  0
LINE
  5
2C2
330
1F
100
AcDbEntity
  8
5
  6
Continuous
 62
     7
370
    18
100
AcDbLine
 10
-210.7626919758202
 20
-58.32068370537616
 30
0.0
 11
-210.7626919758202
 21
-65.02061961846188
 31
0.0
  0
LINE
  5
2C3
330
1F
100
AcDbEntity
  8
5
  6
Continuous
 62
     7
370
    18
100
AcDbLine
 10
-180.7582974445702
 20
-58.32068370537616
 30
0.0
 11
-180.7582974445702
 21
-65.02061961846188
 31
0.0
  0
LINE
  5
2C4
330
1F
100
AcDbEntity
  8
5
  6
Continuous
 62
     7
370
    18
100
AcDbLine
 10
-216.2634243976954
 20
-57.32068370537616
 30
0.0
 11
-175.2636685383204
 21
-57.32068370537616
 31
0.0
  0
LINE
  5
2C5
330
1F
100
AcDbEntity
  8
5
  6
Continuous
 62
     7
370
    18
100
AcDbLine
 10
-216.2634243976954
 20
-58.32068370537616
 30
0.0
 11
-175.2636685383204
 21
-58.32068370537616
 31
0.0
  0
LINE
  5
2C6
330
1F
100
AcDbEntity
  8
5
  6
Continuous
 62
     7
370
    18
100
AcDbLine
 10
-210.7630581867577
 20
-56.62068675713375
 30
0.0
 11
-216.2630581867577
 21
-56.62068675713375
 31
0.0
  0
ARC
  5
2C7
330
1F
100
AcDbEntity
  8
5
  6
Continuous
 62
     7
370
    18
100
AcDbCircle
 10
-213.5130581867577
 20
-61.62068675713375
 30
0.0
 40
7.0
100
AcDbArc
 50
73.7429799917889
 51
106.2570300261245
  0
LINE
  5
2C8
330
1F
100
AcDbEntity
  8
5
  6
Continuous
 62
     7
370
    18
100
AcDbLine
 10
-210.8371699639354
 20
-55.77343686100665
 30
0.0
 11
-210.763047139804
 21
-56.62066447527776
 31
0.0
  0
LINE
  5
2C9
330
1F
100
AcDbEntity
  8
5
  6
Continuous
 62
     7
370
    18
100
AcDbLine
 10
-216.1888764594939
 20
-55.77340210064029
 30
0.0
 11
-216.263001943408
 21
-56.62066011636137
 31
0.0
  0
ARC
  5
2CA
330
1F
100
AcDbEntity
  8
5
  6
Continuous
 62
     7
370
    18
100
AcDbCircle
 10
-211.8333706867577
 20
-55.8605854387746
 30
0.0
 40
1.0
100
AcDbArc
 50
4.999953693934692
 51
73.74292535027895
  0
ARC
  5
2CB
330
1F
100
AcDbEntity
  8
5
  6
Continuous
 62
     7
370
    18
100
AcDbCircle
 10
-215.1927456867577
 20
-55.8605854387746
 30
0.0
 40
1.0
100
AcDbArc
 50
106.2570883101052
 51
175.0000531362552
  0
LINE
  5
2CC
330
1F
100
AcDbEntity
  8
5
  6
Continuous
 62
     7
370
    18
100
AcDbLine
 10
-210.7630581867577
 20
-56.62068675713375
 30
0.0
 11
-210.7630581867577
 21
-57.32068370537616
 31
0.0
  0
LINE
  5
2CD
330
1F
100
AcDbEntity
  8
5
  6
Continuous
 62
     7
370
    18
100
AcDbLine
 10
-216.2630581867577
 20
-56.62068675713375
 30
0.0
 11
-216.2630581867577
 21
-57.32068370537616
 31
0.0
  0
LINE
  5
2CE
330
1F
100
AcDbEntity
  8
5
  6
Continuous
 62
     7
370
    18
100
AcDbLine
 10
-175.2609829914452
 20
-56.62068675713375
 30
0.0
 11
-180.7609829914452
 21
-56.62068675713375
 31
0.0
  0
ARC
  5
2CF
330
1F
100
AcDbEntity
  8
5
  6
Continuous
 62
     7
370
    18
100
AcDbCircle
 10
-178.0109829914452
 20
-61.62068675713375
 30
0.0
 40
7.0
100
AcDbArc
 50
73.7429799917889
 51
106.2570300261245
  0
LINE
  5
2D0
330
1F
100
AcDbEntity
  8
5
  6
Continuous
 62
     7
370
    18
100
AcDbLine
 10
-175.3351144893929
 20
-55.77343616486917
 30
0.0
 11
-175.2609916652616
 21
-56.62066377914051
 31
0.0
  0
LINE
  5
2D1
330
1F
100
AcDbEntity
  8
5
  6
Continuous
 62
     7
370
    18
100
AcDbLine
 10
-180.6868057842264
 20
-55.77340412666866
 30
0.0
 11
-180.7609299382491
 21
-56.62064694166509
 31
0.0
  0
ARC
  5
2D2
330
1F
100
AcDbEntity
  8
5
  6
Continuous
 62
     7
370
    18
100
AcDbCircle
 10
-176.3312954914452
 20
-55.8605854387746
 30
0.0
 40
1.0
100
AcDbArc
 50
4.999953693934692
 51
73.74292535027895
  0
ARC
  5
2D3
330
1F
100
AcDbEntity
  8
5
  6
Continuous
 62
     7
370
    18
100
AcDbCircle
 10
-179.6906704914452
 20
-55.8605854387746
 30
0.0
 40
1.0
100
AcDbArc
 50
106.2570883101052
 51
175.0000531362552
  0
LINE
  5
2D4
330
1F
100
AcDbEntity
  8
5
  6
Continuous
 62
     7
370
    18
100
AcDbLine
 10
-175.2609829914452
 20
-56.62068675713375
 30
0.0
 11
-175.2609829914452
 21
-57.32068370537616
 31
0.0
  0
LINE
  5
2D5
330
1F
100
AcDbEntity
  8
5
  6
Continuous
 62
     7
370
    18
100
AcDbLine
 10
-180.7609829914452
 20
-56.62068675713375
 30
0.0
 11
-180.7609829914452
 21
-57.32068370537616
 31
0.0
  0
LINE
  5
2D6
330
1F
100
AcDbEntity
  8
5
  6
Continuous
 62
     7
370
    18
100
AcDbLine
 10
-195.5139676965648
 20
-47.62063797841177
 30
0.0
 11
-195.5140125482587
 21
-57.32068070302115
 31
0.0
  0
LINE
  5
2D7
330
1F
100
AcDbEntity
  8
5
  6
Continuous
 62
     7
370
    18
100
AcDbLine
 10
-181.5140074474932
 20
-47.62076445417154
 30
0.0
 11
-195.513961671126
 21
-47.62063498635792
 31
0.0
  0
LINE
  5
2D8
330
1F
100
AcDbEntity
  8
5
  6
Continuous
 62
     7
370
    18
100
AcDbLine
 10
-181.513967696847
 20
-47.62076374768674
 30
0.0
 11
-181.5140125479766
 21
-57.32068440198339
 31
0.0
  0
LINE
  5
2D9
330
1F
100
AcDbEntity
  8
5
  6
Continuous
 62
     7
370
    18
100
AcDbLine
 10
-210.013982955636
 20
-47.62063196744624
 30
0.0
 11
-210.01402780733
 21
-57.32067469205561
 31
0.0
  0
LINE
  5
2DA
330
1F
100
AcDbEntity
  8
5
  6
Continuous
 62
     7
370
    18
100
AcDbLine
 10
-196.013976931185
 20
-47.6207676914529
 30
0.0
 11
-210.013976931185
 21
-47.62063822321591
 31
0.0
  0
LINE
  5
2DB
330
1F
100
AcDbEntity
  8
5
  6
Continuous
 62
     7
370
    18
100
AcDbLine
 10
-196.0139829558477
 20
-47.62074247793192
 30
0.0
 11
-196.0140278070478
 21
-57.32067839101786
 31
0.0
  0
LINE
  5
2DC
330
1F
100
AcDbEntity
  8
5
  6
Continuous
 62
     7
370
    18
100
AcDbLine
 10
-175.2636685383202
 20
-57.32068370537616
 30
0.0
 11
-175.2636685383202
 21
-65.02061961846188
 31
0.0
  0
LINE
  5
2DD
330
1F
100
AcDbEntity
  8
5
  6
Continuous
 62
     7
370
    18
100
AcDbLine
 10
-198.0639920246483
 20
-46.57072948174341
 30
0.0
 11
-198.0639920246483
 21
-47.62071727471187
 31
0.0
  0
LINE
  5
2DE
330
1F
100
AcDbEntity
  8
5
  6
Continuous
 62
     7
370
    18
100
AcDbLine
 10
-198.063992024649
 20
-46.57072948174386
 30
0.0
 11
-207.9639859211334
 21
-46.57072948174363
 31
0.0
  0
LINE
  5
2DF
330
1F
100
AcDbEntity
  8
5
  6
Continuous
 62
     7
370
    18
100
AcDbLine
 10
-198.0639462482811
 20
-44.42072032646997
 30
0.0
 11
-198.0639462482811
 21
-45.92072032646997
 31
0.0
  0
LINE
  5
2E0
330
1F
100
AcDbEntity
  8
5
  6
Continuous
 62
     7
370
    18
100
AcDbLine
 10
-199.8759121906639
 20
-46.57072948174341
 30
0.0
 11
-199.8759121906639
 21
-45.92072032646997
 31
0.0
  0
LINE
  5
2E1
330
1F
100
AcDbEntity
  8
5
  6
Continuous
 62
     7
370
    18
100
AcDbLine
 10
-207.9639859211327
 20
-46.57072948174341
 30
0.0
 11
-207.9639859211327
 21
-47.62071727471187
 31
0.0
  0
LINE
  5
2E2
330
1F
100
AcDbEntity
  8
5
  6
Continuous
 62
     7
370
    18
100
AcDbLine
 10
-207.9640316974999
 20
-44.42072032646997
 30
0.0
 11
-207.9640316974999
 21
-45.92072032646997
 31
0.0
  0
LINE
  5
2E3
330
1F
100
AcDbEntity
  8
5
  6
Continuous
 62
     7
370
    18
100
AcDbLine
 10
-207.9579281818742
 20
-45.92072032646951
 30
0.0
 11
-198.0639462482804
 21
-45.92072032646929
 31
0.0
  0
LINE
  5
2E4
330
1F
100
AcDbEntity
  8
5
  6
Continuous
 62
     7
370
    18
100
AcDbLine
 10
-207.9640316974992
 20
-44.42072032646951
 30
0.0
 11
-198.0639462482804
 21
-44.42072032646929
 31
0.0
  0
LINE
  5
2E5
330
1F
100
AcDbEntity
  8
5
  6
Continuous
 62
     7
370
    18
100
AcDbLine
 10
-206.1520657551171
 20
-46.57072948174341
 30
0.0
 11
-206.1520657551171
 21
-45.92072032646997
 31
0.0
  0
LINE
  5
2E6
330
1F
100
AcDbEntity
  8
5
  6
Continuous
 62
     7
370
    18
100
AcDbLine
 10
-183.5639767658593
 20
-46.57071422295434
 30
0.0
 11
-183.5639767658593
 21
-47.62070201592304
 31
0.0
  0
LINE
  5
2E7
330
1F
100
AcDbEntity
  8
5
  6
Continuous
 62
     7
370
    18
100
AcDbLine
 10
-183.5639767658599
 20
-46.5707142229548
 30
0.0
 11
-193.4639706623443
 21
-46.5707142229548
 31
0.0
  0
LINE
  5
2E8
330
1F
100
AcDbEntity
  8
5
  6
Continuous
 62
     7
370
    18
100
AcDbLine
 10
-183.5639309894921
 20
-44.42070506768091
 30
0.0
 11
-183.5639309894921
 21
-45.92070506768091
 31
0.0
  0
LINE
  5
2E9
330
1F
100
AcDbEntity
  8
5
  6
Continuous
 62
     7
370
    18
100
AcDbLine
 10
-185.3758969318749
 20
-46.57071422295434
 30
0.0
 11
-185.3758969318749
 21
-45.92070506768091
 31
0.0
  0
LINE
  5
2EA
330
1F
100
AcDbEntity
  8
5
  6
Continuous
 62
     7
370
    18
100
AcDbLine
 10
-193.4639706623436
 20
-46.57071422295434
 30
0.0
 11
-193.4639706623436
 21
-47.62070201592304
 31
0.0
  0
LINE
  5
2EB
330
1F
100
AcDbEntity
  8
5
  6
Continuous
 62
     7
370
    18
100
AcDbLine
 10
-193.4640164387108
 20
-44.42070506768091
 30
0.0
 11
-193.4640164387108
 21
-45.92070506768091
 31
0.0
  0
LINE
  5
2EC
330
1F
100
AcDbEntity
  8
5
  6
Continuous
 62
     7
370
    18
100
AcDbLine
 10
-193.4579129230858
 20
-45.92070506768091
 30
0.0
 11
-183.5639309894921
 21
-45.92070506768091
 31
0.0
  0
LINE
  5
2ED
330
1F
100
AcDbEntity
  8
5
  6
Continuous
 62
     7
370
    18
100
AcDbLine
 10
-193.4640164387108
 20
-44.42070506768091
 30
0.0
 11
-183.5639309894921
 21
-44.42070506768091
 31
0.0
  0
LINE
  5
2EE
330
1F
100
AcDbEntity
  8
5
  6
Continuous
 62
     7
370
    18
100
AcDbLine
 10
-191.652050496328
 20
-46.57071422295434
 30
0.0
 11
-191.652050496328
 21
-45.92070506768091
 31
0.0
  0
LINE
  5
2EF
330
1F
100
AcDbEntity
  8
5
  6
CENTERX2
 62
     3
370
    13
100
AcDbLine
 10
344.3009071088989
 20
-24.78162871334025
 30
0.0
 11
344.3009071088998
 21
-90.26724730464882
 31
0.0
  0
LINE
  5
2F0
330
1F
100
AcDbEntity
  8
5
  6
CENTERX2
 62
     3
370
    13
100
AcDbLine
 10
354.3007163740365
 20
-34.62042342159219
 30
0.0
 11
334.3007125593392
 21
-34.6204234215922
 31
0.0
  0
LINE
  5
2F1
330
1F
100
AcDbEntity
  8
5
  6
CENTERX2
 62
     3
370
    13
100
AcDbLine
 10
357.5884108900598
 20
-51.32063761846108
 30
0.0
 11
353.4510398035698
 21
-51.32063761846108
 31
0.0
  0
LINE
  5
2F2
330
1F
100
AcDbEntity
  8
5
  6
CENTERX2
 62
     3
370
    13
100
AcDbLine
 10
-248.2641895346928
 20
-24.87886531983026
 30
0.0
 11
-248.2642079112497
 21
-56.59013851318958
 31
0.0
  0
LINE
  5
2F3
330
1F
100
AcDbEntity
  8
5
  6
CENTERX2
 62
     3
370
    13
100
AcDbLine
 10
-254.4712340593987
 20
-34.62062197678217
 30
0.0
 11
-280.9128844500237
 21
-34.62060665395058
 31
0.0
  0
LINE
  5
2F4
330
1F
100
AcDbEntity
  8
5
  6
CENTERX2
 62
     3
370
    13
100
AcDbLine
 10
-177.7642164541701
 20
-63.020634877251
 30
0.0
 11
-177.7642164541701
 21
-90.02061961846199
 31
0.0
  0
LINE
  5
2F5
330
1F
100
AcDbEntity
  8
5
  6
CENTERX2
 62
     3
370
    13
100
AcDbLine
 10
-179.7118560862104
 20
-51.32063761846178
 30
0.0
 11
-174.8608850280175
 21
-51.32063761846178
 31
0.0
  0
LINE
  5
2F6
330
1F
100
AcDbEntity
  8
5
  6
CENTERX2
 62
     3
370
    13
100
AcDbLine
 10
-216.4067571575392
 20
-51.32063761846178
 30
0.0
 11
-212.0701430305921
 21
-51.32063761846178
 31
0.0
  0
LINE
  5
2F7
330
1F
100
AcDbEntity
  8
5
  6
CENTERX2
 62
     3
370
    13
100
AcDbLine
 10
-177.2639726260447
 20
-49.1605476335343
 30
0.0
 11
-177.2639726260447
 21
-53.6605476335343
 31
0.0
  0
LINE
  5
2F8
330
1F
100
AcDbEntity
  8
5
  6
CENTERX2
 62
     3
370
    13
100
AcDbLine
 10
-214.2639726260447
 20
-49.1264777133464
 30
0.0
 11
-214.2639726260447
 21
-53.6264777133464
 31
0.0
  0
LINE
  5
2F9
330
1F
100
AcDbEntity
  8
5
  6
Continuous
 62
     7
370
    13
100
AcDbLine
 10
356.0009339370251
 20
-47.82039387398452
 30
0.0
 11
354.8009379370249
 21
-47.82039387398452
 31
0.0
  0
LINE
  5
2FA
330
1F
100
AcDbEntity
  8
5
  6
Continuous
 62
     7
370
    13
100
AcDbLine
 10
356.0009339370251
 20
-67.52039087398468
 30
0.0
 11
353.0009339370251
 21
-67.52039087398468
 31
0.0
  0
LINE
  5
2FB
330
1F
100
AcDbEntity
  8
5
  6
Continuous
 62
     7
370
    13
100
AcDbLine
 10
356.0009339370251
 20
-83.1203968739848
 30
0.0
 11
353.0009339370251
 21
-83.1203968739848
 31
0.0
  0
LINE
  5
2FC
330
1F
100
AcDbEntity
  8
5
  6
Continuous
 62
     7
370
    13
100
AcDbLine
 10
356.0009339370251
 20
-87.32039387398451
 30
0.0
 11
354.8009379370249
 21
-87.32039387398451
 31
0.0
  0
LINE
  5
2FD
330
1F
100
AcDbEntity
  8
5
  6
Continuous
 62
     7
370
    13
100
AcDbLine
 10
354.8009379370249
 20
-84.32039387398451
 30
0.0
 11
353.0009339370251
 21
-84.32039387398451
 31
0.0
  0
LINE
  5
2FE
330
1F
100
AcDbEntity
  8
5
  6
Continuous
 62
     7
370
    13
100
AcDbLine
 10
356.0009339370251
 20
-47.82039387398452
 30
0.0
 11
356.0009339370251
 21
-67.52039087398468
 31
0.0
  0
LINE
  5
2FF
330
1F
100
AcDbEntity
  8
5
  6
Continuous
 62
     7
370
    13
100
AcDbLine
 10
354.8009379370249
 20
-84.32039387398451
 30
0.0
 11
354.8009379370249
 21
-87.32039387398451
 31
0.0
  0
LINE
  5
300
330
1F
100
AcDbEntity
  8
5
  6
Continuous
 62
     7
370
    13
100
AcDbLine
 10
353.0009339370251
 20
-67.52039087398468
 30
0.0
 11
353.0009339370251
 21
-83.1203968739848
 31
0.0
  0
LINE
  5
301
330
1F
100
AcDbEntity
  8
5
  6
Continuous
 62
     7
370
    13
100
AcDbLine
 10
356.0009339370251
 20
-83.1203968739848
 30
0.0
 11
356.0009339370251
 21
-87.32039387398451
 31
0.0
  0
LINE
  5
302
330
1F
100
AcDbEntity
  8
5
  6
Continuous
 62
     7
370
    13
100
AcDbLine
 10
354.8009379370249
 20
-47.82039387398452
 30
0.0
 11
354.8009379370249
 21
-66.32039387398451
 31
0.0
  0
LINE
  5
303
330
1F
100
AcDbEntity
  8
5
  6
Continuous
 62
     7
370
    13
100
AcDbLine
 10
353.8481849370248
 20
-73.99626787398454
 30
0.0
 11
353.000934937025
 21
-74.07039287398463
 31
0.0
  0
LINE
  5
304
330
1F
100
AcDbEntity
  8
5
  6
Continuous
 62
     7
370
    13
100
AcDbLine
 10
353.8481849370248
 20
-68.6445158739845
 30
0.0
 11
353.000934937025
 21
-68.57039187398475
 31
0.0
  0
ARC
  5
305
330
1F
100
AcDbEntity
  8
5
  6
Continuous
 62
     7
370
    13
100
AcDbCircle
 10
348.0009339370251
 20
-71.32039387398454
 30
0.0
 40
7.0
100
AcDbArc
 50
343.7429840000001
 51
16.25703400000003
  0
ARC
  5
306
330
1F
100
AcDbEntity
  8
5
  6
Continuous
 62
     7
370
    13
100
AcDbCircle
 10
353.7610279370249
 20
-73.00007487398459
 30
0.0
 40
1.0
100
AcDbArc
 50
274.9999540000001
 51
343.742912
  0
ARC
  5
307
330
1F
100
AcDbEntity
  8
5
  6
Continuous
 62
     7
370
    13
100
AcDbCircle
 10
353.7610279370249
 20
-69.64071387398478
 30
0.0
 40
1.0
100
AcDbArc
 50
16.25708800000006
 51
85.00004600000005
  0
LINE
  5
308
330
1F
100
AcDbEntity
  8
5
  6
Continuous
 62
     7
370
    13
100
AcDbLine
 10
354.8009379370249
 20
-66.32039387398451
 30
0.0
 11
351.8009349370247
 21
-66.32039387398451
 31
0.0
  0
ARC
  5
309
330
1F
100
AcDbEntity
  8
5
  6
Continuous
 62
     7
370
    13
100
AcDbCircle
 10
353.0009339370251
 20
-83.1203968739848
 30
0.0
 40
1.2
100
AcDbArc
 50
250.528916
 51
269.999982
  0
CIRCLE
  5
30A
330
1F
100
AcDbEntity
  8
5
  6
Continuous
 62
     7
370
    13
100
AcDbCircle
 10
-214.2639726260447
 20
-51.32063761846178
 30
0.0
 40
1.6
  0
LINE
  5
30B
330
1F
100
AcDbEntity
  8
5
  6
Continuous
 62
     7
370
    13
100
AcDbLine
 10
-218.2639726260447
 20
-47.82063761846178
 30
0.0
 11
-218.2639726260447
 21
-64.17705261846176
 31
0.0
  0
LINE
  5
30C
330
1F
100
AcDbEntity
  8
5
  6
Continuous
 62
     7
370
    13
100
AcDbLine
 10
-209.7639726260447
 20
-47.82063761846178
 30
0.0
 11
-218.2639726260447
 21
-47.82063761846178
 31
0.0
  0
LINE
  5
30D
330
1F
100
AcDbEntity
  8
5
  6
Continuous
 62
     7
370
    13
100
AcDbLine
 10
-215.1157166260448
 20
-65.02061461846178
 30
0.0
 11
-218.2639816260451
 21
-64.1770396184619
 31
0.0
  0
LINE
  5
30E
330
1F
100
AcDbEntity
  8
5
  6
Continuous
 62
     7
370
    13
100
AcDbLine
 10
-173.2639726260447
 20
-47.82063761846178
 30
0.0
 11
-181.7639726260447
 21
-47.82063761846178
 31
0.0
  0
CIRCLE
  5
30F
330
1F
100
AcDbEntity
  8
5
  6
Continuous
 62
     7
370
    13
100
AcDbCircle
 10
-177.2639726260447
 20
-51.32063761846178
 30
0.0
 40
1.6
  0
LINE
  5
310
330
1F
100
AcDbEntity
  8
5
  6
Continuous
 62
     7
370
    13
100
AcDbLine
 10
-173.2639726260447
 20
-47.82063761846178
 30
0.0
 11
-173.2639726260447
 21
-64.17705261846176
 31
0.0
  0
LINE
  5
311
330
1F
100
AcDbEntity
  8
5
  6
Continuous
 62
     7
370
    13
100
AcDbLine
 10
-173.2639736260451
 20
-64.17704861846177
 30
0.0
 11
-176.4122526260451
 21
-65.02062761846186
 31
0.0
  0
LINE
  5
312
330
1F
100
AcDbEntity
  8
5
  6
CENTER
 62
     2
370
    18
100
AcDbLine
 10
-228.4641676260451
 20
-60.42059825615725
 30
0.0
 11
-228.4641676260451
 21
-62.2207081194385
 31
0.0
  0
LINE
  5
313
330
1F
100
AcDbEntity
  8
5
  6
PHANTOM
 62
   140
370
    13
100
AcDbLine
 10
-209.7639726260447
 20
-47.82063761846178
 30
0.0
 11
-209.7639726260447
 21
-60.32063761846179
 31
0.0
  0
LINE
  5
314
330
1F
100
AcDbEntity
  8
5
  6
PHANTOM
 62
   140
370
    13
100
AcDbLine
 10
-181.7639726260447
 20
-60.32063761846179
 30
0.0
 11
-209.7639726260447
 21
-60.32063761846179
 31
0.0
  0
LINE
  5
315
330
1F
100
AcDbEntity
  8
5
  6
PHANTOM
 62
   140
370
    13
100
AcDbLine
 10
-181.7639726260447
 20
-47.82063761846178
 30
0.0
 11
-181.7639726260447
 21
-60.32063761846179
 31
0.0
  0
LINE
  5
316
330
1F
100
AcDbEntity
  8
7
  6
PHANTOM
 62
   140
370
    13
100
AcDbLine
 10
360.0009339370256
 20
102.6835070278646
 30
0.0
 11
410.0009339370256
 21
102.6835070278646
 31
0.0
  0
LINE
  5
317
330
1F
100
AcDbEntity
  8
7
  6
PHANTOM
 62
   140
370
    13
100
AcDbLine
 10
410.0009339370256
 20
-37.31649297213539
 30
0.0
 11
360.0009339370256
 21
-37.31649297213544
 31
0.0
  0
LINE
  5
318
330
1F
100
AcDbEntity
  8
7
  6
PHANTOM
 62
   140
370
    13
100
AcDbLine
 10
360.0009339370256
 20
-37.31649297213544
 30
0.0
 11
360.0009339370256
 21
102.6835070278646
 31
0.0
  0
LINE
  5
319
330
1F
100
AcDbEntity
  8
7
  6
PHANTOM
 62
   140
370
    13
100
AcDbLine
 10
410.0009339370256
 20
102.6835070278646
 30
0.0
 11
410.0009339370256
 21
-37.31649297213539
 31
0.0
  0
LINE
  5
31A
330
1F
100
AcDbEntity
  8
7
  6
PHANTOM
 62
   140
370
    13
100
AcDbLine
 10
361.5009339370279
 20
-35.81649297213527
 30
0.0
 11
408.5009339370256
 21
-35.81649297213388
 31
0.0
  0
LINE
  5
31B
330
1F
100
AcDbEntity
  8
7
  6
PHANTOM
 62
   140
370
    13
100
AcDbLine
 10
408.5009339370238
 20
102.6835070278646
 30
0.0
 11
408.5009339370256
 21
-37.31649297213539
 31
0.0
  0
LINE
  5
31C
330
1F
100
AcDbEntity
  8
7
  6
PHANTOM
 62
   140
370
    13
100
AcDbLine
 10
360.0009339370258
 20
47.68350702786459
 30
0.0
 11
361.5009339370256
 21
47.68350702786459
 31
0.0
  0
LINE
  5
31D
330
1F
100
AcDbEntity
  8
7
  6
PHANTOM
 62
   140
370
    13
100
AcDbLine
 10
361.5009339370242
 20
102.6835070278646
 30
0.0
 11
361.5009339370279
 21
-37.31649297213544
 31
0.0
  0
LINE
  5
31E
330
1F
100
AcDbEntity
  8
7
  6
PHANTOM
 62
   140
370
    13
100
AcDbLine
 10
385.0009339370256
 20
102.6835070278646
 30
0.0
 11
385.0009339370256
 21
-37.31649297213541
 31
0.0
  0
LINE
  5
31F
330
1F
100
AcDbEntity
  8
7
  6
PHANTOM
 62
   140
370
    13
100
AcDbLine
 10
-223.7639726260422
 20
102.6835222866536
 30
0.0
 11
186.2360273739575
 21
102.6835222866536
 31
0.0
  0
LINE
  5
320
330
1F
100
AcDbEntity
  8
7
  6
PHANTOM
 62
   140
370
    13
100
AcDbLine
 10
377.9009339370255
 20
-35.8164929721368
 30
0.0
 11
366.1009339370255
 21
-35.8164929721368
 31
0.0
  0
LINE
  5
321
330
1F
100
AcDbEntity
  8
7
  6
PHANTOM
 62
   140
370
    13
100
AcDbLine
 10
377.9009339370255
 20
-35.46876622139563
 30
0.0
 11
366.1009339370255
 21
-35.46876622139563
 31
0.0
  0
LINE
  5
322
330
1F
100
AcDbEntity
  8
7
  6
PHANTOM
 62
   140
370
    13
100
AcDbLine
 10
377.9009339370255
 20
-35.46876622139563
 30
0.0
 11
377.9009339370255
 21
-35.8164929721368
 31
0.0
  0
LINE
  5
323
330
1F
100
AcDbEntity
  8
7
  6
PHANTOM
 62
   140
370
    13
100
AcDbLine
 10
366.1009339370255
 20
-35.46876622139563
 30
0.0
 11
366.1009339370255
 21
-35.8164929721368
 31
0.0
  0
ARC
  5
324
330
1F
100
AcDbEntity
  8
7
  6
PHANTOM
 62
   140
370
    13
100
AcDbCircle
 10
372.0009339370256
 20
-40.4164929721368
 30
0.0
 40
7.7
100
AcDbArc
 50
39.98312145428275
 51
140.0168785457172
  0
LINE
  5
325
330
1F
100
AcDbEntity
  8
7
  6
PHANTOM
 62
   140
370
    13
100
AcDbLine
 10
372.0009339370256
 20
-30.3564929721368
 30
0.0
 11
372.0009339370256
 21
-38.07649297213689
 31
0.0
  0
LINE
  5
326
330
1F
100
AcDbEntity
  8
7
  6
PHANTOM
 62
   140
370
    13
100
AcDbLine
 10
403.9009339370255
 20
-35.81649297213222
 30
0.0
 11
392.1009339370255
 21
-35.81649297213222
 31
0.0
  0
LINE
  5
327
330
1F
100
AcDbEntity
  8
7
  6
PHANTOM
 62
   140
370
    13
100
AcDbLine
 10
403.9009339370255
 20
-35.46876622139105
 30
0.0
 11
392.1009339370255
 21
-35.46876622139105
 31
0.0
  0
LINE
  5
328
330
1F
100
AcDbEntity
  8
7
  6
PHANTOM
 62
   140
370
    13
100
AcDbLine
 10
403.9009339370255
 20
-35.46876622139105
 30
0.0
 11
403.9009339370255
 21
-35.81649297213222
 31
0.0
  0
LINE
  5
329
330
1F
100
AcDbEntity
  8
7
  6
PHANTOM
 62
   140
370
    13
100
AcDbLine
 10
392.1009339370255
 20
-35.46876622139105
 30
0.0
 11
392.1009339370255
 21
-35.81649297213222
 31
0.0
  0
ARC
  5
32A
330
1F
100
AcDbEntity
  8
7
  6
PHANTOM
 62
   140
370
    13
100
AcDbCircle
 10
398.0009339370256
 20
-40.41649297213223
 30
0.0
 40
7.7
100
AcDbArc
 50
39.98312145428275
 51
140.0168785457172
  0
LINE
  5
32B
330
1F
100
AcDbEntity
  8
7
  6
PHANTOM
 62
   140
370
    13
100
AcDbLine
 10
398.0009339370256
 20
-30.35649297213222
 30
0.0
 11
398.0009339370256
 21
-38.07649297213231
 31
0.0
  0
LINE
  5
32C
330
1F
100
AcDbEntity
  8
2
  6
DASHED2
 62
     4
370
    13
100
AcDbLine
 10
-284.2639726260438
 20
-41.31647771334564
 30
0.0
 11
-278.3640602052535
 21
-41.31647771334566
 31
0.0
  0
LINE
  5
32D
330
1F
100
AcDbEntity
  8
0
  6
Continuous
 62
     2
370
    13
100
AcDbLine
 10
-345.2639726260456
 20
15.68352228665517
 30
0.0
 11
-345.2639726260456
 21
130.6835222866559
 31
0.0
  0
INSERT
  5
334
330
1F
100
AcDbEntity
  8
0
 62
     2
100
AcDbBlockReference
  2
_Open30
 10
-345.2639726260456
 20
15.68352228665517
 30
0.0
 41
9.000008422845859
 42
8.99996810467093
 50
270.0
  0
INSERT
  5
335
330
1F
100
AcDbEntity
  8
0
 62
     2
100
AcDbBlockReference
  2
_Open30
 10
-345.2639726260456
 20
130.6835222866559
 30
0.0
 41
9.000008422845859
 42
8.99996810467093
 50
90.0
  0
LINE
  5
336
330
1F
100
AcDbEntity
  8
0
  6
Continuous
 62
     2
370
    13
100
AcDbLine
 10
-315.2639726260456
 20
237.651438255402
 30
0.0
 11
244.7360273739562
 21
237.651438255402
 31
0.0
  0
INSERT
  5
337
330
1F
100
AcDbEntity
  8
0
 62
     2
100
AcDbBlockReference
  2
_Open30
 10
-315.2639726260456
 20
237.651438255402
 30
0.0
 41
9.000008422845859
 42
8.99996810467093
 50
180.0
  0
INSERT
  5
338
330
1F
100
AcDbEntity
  8
0
 62
     2
100
AcDbBlockReference
  2
_Open30
 10
244.7360273739562
 20
237.651438255402
 30
0.0
 41
9.000008422845859
 42
8.99996810467093
 50
360.0
  0
LINE
  5
339
330
1F
100
AcDbEntity
  8
0
  6
Continuous
 62
     2
370
    13
100
AcDbLine
 10
360.0009339370256
 20
-107.6529669417564
 30
0.0
 11
410.0009339370256
 21
-107.6529669417564
 31
0.0
  0
INSERT
  5
33A
330
1F
100
AcDbEntity
  8
0
 62
     2
100
AcDbBlockReference
  2
_Open30
 10
360.0009339370256
 20
-107.6529669417564
 30
0.0
 41
9.000008422845859
 42
8.99996810467093
 50
180.0
  0
INSERT
  5
33B
330
1F
100
AcDbEntity
  8
0
 62
     2
100
AcDbBlockReference
  2
_Open30
 10
410.0009339370256
 20
-107.6529669417564
 30
0.0
 41
9.000008422845859
 42
8.99996810467093
 50
360.0
  0
LINE
  5
33C
330
1F
100
AcDbEntity
  8
0
  6
Continuous
 62
     2
370
    13
100
AcDbLine
 10
-315.2639726260441
 20
213.0699319568225
 30
0.0
 11
-264.7639785860438
 21
213.0699319568225
 31
0.0
  0
INSERT
  5
33D
330
1F
100
AcDbEntity
  8
0
 62
     2
100
AcDbBlockReference
  2
_Open30
 10
-315.2639726260441
 20
213.0699319568225
 30
0.0
 41
9.000008422845859
 42
8.99996810467093
 50
180.0
  0
INSERT
  5
33E
330
1F
100
AcDbEntity
  8
0
 62
     2
100
AcDbBlockReference
  2
_Open30
 10
-264.7639785860438
 20
213.0699319568225
 30
0.0
 41
9.000008422845859
 42
8.99996810467093
 50
360.0
  0
LINE
  5
33F
330
1F
100
AcDbEntity
  8
0
  6
Continuous
 62
     2
370
    13
100
AcDbLine
 10
-264.763982878043
 20
213.0699319568225
 30
0.0
 11
231.2360273739559
 21
213.0699319568225
 31
0.0
  0
INSERT
  5
340
330
1F
100
AcDbEntity
  8
0
 62
     2
100
AcDbBlockReference
  2
_Open30
 10
-264.763982878043
 20
213.0699319568225
 30
0.0
 41
9.000008422845859
 42
8.99996810467093
 50
180.0
  0
INSERT
  5
341
330
1F
100
AcDbEntity
  8
0
 62
     2
100
AcDbBlockReference
  2
_Open30
 10
231.2360273739559
 20
213.0699319568225
 30
0.0
 41
9.000008422845859
 42
8.99996810467093
 50
360.0
  0
LINE
  5
342
330
1F
100
AcDbEntity
  8
0
  6
Continuous
 62
     2
370
    13
100
AcDbLine
 10
-218.7639726260443
 20
171.6835222866534
 30
0.0
 11
181.2360273739559
 21
171.6835222866534
 31
0.0
  0
INSERT
  5
343
330
1F
100
AcDbEntity
  8
0
 62
     2
100
AcDbBlockReference
  2
_Open30
 10
-218.7639726260443
 20
171.6835222866534
 30
0.0
 41
9.000008422845859
 42
8.99996810467093
 50
180.0
  0
INSERT
  5
344
330
1F
100
AcDbEntity
  8
0
 62
     2
100
AcDbBlockReference
  2
_Open30
 10
181.2360273739559
 20
171.6835222866534
 30
0.0
 41
9.000008422845859
 42
8.99996810467093
 50
360.0
  0
LINE
  5
345
330
1F
100
AcDbEntity
  8
0
  6
Continuous
 62
     2
370
    13
100
AcDbLine
 10
-345.2639726260456
 20
-41.31647771334639
 30
0.0
 11
-345.2639726260456
 21
15.68352228665517
 31
0.0
  0
INSERT
  5
346
330
1F
100
AcDbEntity
  8
0
 62
     2
100
AcDbBlockReference
  2
_Open30
 10
-345.2639726260456
 20
-41.31647771334639
 30
0.0
 41
9.000008422845859
 42
8.99996810467093
 50
270.0
  0
INSERT
  5
347
330
1F
100
AcDbEntity
  8
0
 62
     2
100
AcDbBlockReference
  2
_Open30
 10
-345.2639726260456
 20
15.68352228665517
 30
0.0
 41
9.000008422845859
 42
8.99996810467093
 50
90.0
  0
LINE
  5
348
330
1F
100
AcDbEntity
  8
0
  6
Continuous
 62
     2
370
    13
100
AcDbLine
 10
-318.2639726260441
 20
15.68352228665517
 30
0.0
 11
-348.2639726260456
 21
15.68352228665517
 31
0.0
  0
LINE
  5
349
330
1F
100
AcDbEntity
  8
0
  6
Continuous
 62
     2
370
    13
100
AcDbLine
 10
-318.2639726260456
 20
130.6835222866559
 30
0.0
 11
-348.2639726260456
 21
130.6835222866559
 31
0.0
  0
LINE
  5
34A
330
1F
100
AcDbEntity
  8
0
  6
Continuous
 62
     2
370
    13
100
AcDbLine
 10
-315.2639726260456
 20
135.6835222866559
 30
0.0
 11
-315.2639726260456
 21
240.651438255402
 31
0.0
  0
LINE
  5
34B
330
1F
100
AcDbEntity
  8
0
  6
Continuous
 62
     2
370
    13
100
AcDbLine
 10
244.7360273739562
 20
133.4835222866561
 30
0.0
 11
244.7360273739562
 21
240.651438255402
 31
0.0
  0
LINE
  5
34C
330
1F
100
AcDbEntity
  8
0
  6
Continuous
 62
     2
370
    13
100
AcDbLine
 10
-111.0810856071134
 20
-57.31647771334587
 30
0.0
 11
-111.0810856071134
 21
-37.31647771334639
 31
0.0
  0
LINE
  5
34D
330
1F
100
AcDbEntity
  8
0
  6
Continuous
 62
     2
370
    13
100
AcDbLine
 10
-127.5455674738894
 20
-57.31647771334586
 30
0.0
 11
-108.0810856071134
 21
-57.31647771334587
 31
0.0
  0
LINE
  5
34E
330
1F
100
AcDbEntity
  8
0
  6
Continuous
 62
     2
370
    13
100
AcDbLine
 10
-135.2037242739325
 20
-37.31647771334639
 30
0.0
 11
-108.0810856071134
 21
-37.31647771334639
 31
0.0
  0
LINE
  5
34F
330
1F
100
AcDbEntity
  8
0
  6
Continuous
 62
     2
370
    13
100
AcDbLine
 10
360.0009339370256
 20
-60.31649297213637
 30
0.0
 11
360.0009339370256
 21
-110.6529669417564
 31
0.0
  0
LINE
  5
350
330
1F
100
AcDbEntity
  8
0
  6
Continuous
 62
     2
370
    13
100
AcDbLine
 10
410.0009339370256
 20
-60.31649297213632
 30
0.0
 11
410.0009339370256
 21
-110.6529669417564
 31
0.0
  0
LINE
  5
351
330
1F
100
AcDbEntity
  8
0
  6
Continuous
 62
     2
370
    13
100
AcDbLine
 10
-232.5874917322778
 20
102.6835222866536
 30
0.0
 11
-232.5874917322778
 21
106.6835222866552
 31
0.0
  0
LINE
  5
352
330
1F
100
AcDbEntity
  8
0
  6
Continuous
 62
     2
370
    13
100
AcDbLine
 10
-226.7639726260438
 20
102.6835222866536
 30
0.0
 11
-235.5874917322778
 21
102.6835222866536
 31
0.0
  0
LINE
  5
353
330
1F
100
AcDbEntity
  8
0
  6
Continuous
 62
     2
370
    13
100
AcDbLine
 10
-234.7639726260434
 20
106.6835222866552
 30
0.0
 11
-229.5874917322778
 21
106.6835222866552
 31
0.0
  0
LINE
  5
354
330
1F
100
AcDbEntity
  8
0
  6
Continuous
 62
     2
370
    13
100
AcDbLine
 10
-315.2639726260441
 20
121.6835222866552
 30
0.0
 11
-315.2639726260441
 21
216.0699319568225
 31
0.0
  0
LINE
  5
355
330
1F
100
AcDbEntity
  8
0
  6
Continuous
 62
     2
370
    13
100
AcDbLine
 10
-264.7639785860438
 20
126.683521851155
 30
0.0
 11
-264.7639785860438
 21
216.0699319568225
 31
0.0
  0
LINE
  5
356
330
1F
100
AcDbEntity
  8
0
  6
Continuous
 62
     2
370
    13
100
AcDbLine
 10
-264.763982878043
 20
126.683521899155
 30
0.0
 11
-264.763982878043
 21
216.0699319568225
 31
0.0
  0
LINE
  5
357
330
1F
100
AcDbEntity
  8
0
  6
Continuous
 62
     2
370
    13
100
AcDbLine
 10
231.2360273739559
 20
127.1835222866555
 30
0.0
 11
231.2360273739559
 21
216.0699319568225
 31
0.0
  0
LINE
  5
358
330
1F
100
AcDbEntity
  8
0
  6
Continuous
 62
     2
370
    13
100
AcDbLine
 10
231.2360273739559
 20
213.0699319568225
 30
0.0
 11
244.7360273739559
 21
213.0699319568225
 31
0.0
  0
LINE
  5
359
330
1F
100
AcDbEntity
  8
0
  6
Continuous
 62
     2
370
    13
100
AcDbLine
 10
231.2360273739559
 20
127.1835222866555
 30
0.0
 11
231.2360273739559
 21
216.0699319568225
 31
0.0
  0
LINE
  5
35A
330
1F
100
AcDbEntity
  8
0
  6
Continuous
 62
     2
370
    13
100
AcDbLine
 10
244.7360273739559
 20
121.6835222866552
 30
0.0
 11
244.7360273739559
 21
216.0699319568225
 31
0.0
  0
LINE
  5
35B
330
1F
100
AcDbEntity
  8
0
  6
Continuous
 62
     2
370
    13
100
AcDbLine
 10
-218.7639726260443
 20
140.6835222866534
 30
0.0
 11
-218.7639726260443
 21
174.1835222866534
 31
0.0
  0
LINE
  5
35C
330
1F
100
AcDbEntity
  8
0
  6
Continuous
 62
     2
370
    13
100
AcDbLine
 10
181.2360273739559
 20
140.6835222866536
 30
0.0
 11
181.2360273739559
 21
174.1835222866534
 31
0.0
  0
LINE
  5
35D
330
1F
100
AcDbEntity
  8
0
  6
Continuous
 62
     2
370
    13
100
AcDbLine
 10
181.2360273739559
 20
141.1835222866534
 30
0.0
 11
207.4793103997483
 21
141.1835222866534
 31
0.0
  0
LINE
  5
35E
330
1F
100
AcDbEntity
  8
0
  6
Continuous
 62
     2
370
    13
100
AcDbLine
 10
227.7360273739559
 20
124.6835222866555
 30
0.0
 11
201.4793103997483
 21
124.6835222866555
 31
0.0
  0
LINE
  5
35F
330
1F
100
AcDbEntity
  8
0
  6
Continuous
 62
     2
370
    13
100
AcDbLine
 10
204.4793103997483
 20
124.6835222866555
 30
0.0
 11
204.4793103997483
 21
141.1835222866534
 31
0.0
  0
LINE
  5
360
330
1F
100
AcDbEntity
  8
0
  6
Continuous
 62
     2
370
    13
100
AcDbLine
 10
-318.2639726260425
 20
15.68352228665517
 30
0.0
 11
-348.2639726260456
 21
15.68352228665517
 31
0.0
  0
LINE
  5
361
330
1F
100
AcDbEntity
  8
0
  6
Continuous
 62
     2
370
    13
100
AcDbLine
 10
-289.2639726260416
 20
-41.31647771334639
 30
0.0
 11
-348.2639726260456
 21
-41.31647771334639
 31
0.0
  0
LINE
  5
362
330
1F
100
AcDbEntity
  8
0
  6
Continuous
 62
     2
370
    13
100
AcDbLine
 10
-289.2639726260416
 20
-41.31647771334639
 30
0.0
 11
-348.2639726260456
 21
-41.31647771334639
 31
0.0
  0
LINE
  5
363
330
1F
100
AcDbEntity
  8
0
  6
Continuous
 62
     2
370
    13
100
AcDbLine
 10
-282.2639726260438
 20
-57.31647771334563
 30
0.0
 11
-348.2639726260456
 21
-57.31647771334563
 31
0.0
  0
LINE
  5
364
330
1F
100
AcDbEntity
  8
0
  6
Continuous
 62
     2
370
    13
100
AcDbLine
 10
-345.2639726260456
 20
-57.31647771334563
 30
0.0
 11
-345.2639726260456
 21
-41.31647771334639
 31
0.0
  0
LINE
  5
365
330
1F
100
AcDbEntity
  8
0
  6
Continuous
 62
     2
370
    13
100
AcDbLine
 10
-111.0810856071134
 20
-84.00981771334587
 30
0.0
 11
-111.0810856071134
 21
-57.31647771334587
 31
0.0
  0
INSERT
  5
366
330
1F
100
AcDbEntity
  8
0
 62
     2
100
AcDbBlockReference
  2
_Open30
 10
-111.0810856071134
 20
-57.31647771334587
 30
0.0
 41
9.000008422845859
 42
8.99996810467093
 50
90.0
  0
LINE
  5
367
330
1F
100
AcDbEntity
  8
0
  6
Continuous
 62
     2
370
    13
100
AcDbLine
 10
-111.0810856071134
 20
-22.31647771334639
 30
0.0
 11
-111.0810856071134
 21
-37.31647771334639
 31
0.0
  0
INSERT
  5
368
330
1F
100
AcDbEntity
  8
0
 62
     2
100
AcDbBlockReference
  2
_Open30
 10
-111.0810856071134
 20
-37.31647771334639
 30
0.0
 41
9.000008422845859
 42
8.99996810467093
 50
270.0
  0
LINE
  5
369
330
1F
100
AcDbEntity
  8
0
  6
Continuous
 62
     2
370
    13
100
AcDbLine
 10
-232.5874917322778
 20
82.49018228665359
 30
0.0
 11
-232.5874917322778
 21
102.6835222866536
 31
0.0
  0
INSERT
  5
36A
330
1F
100
AcDbEntity
  8
0
 62
     2
100
AcDbBlockReference
  2
_Open30
 10
-232.5874917322778
 20
102.6835222866536
 30
0.0
 41
9.000008422845859
 42
8.99996810467093
 50
90.0
  0
LINE
  5
36B
330
1F
100
AcDbEntity
  8
0
  6
Continuous
 62
     2
370
    13
100
AcDbLine
 10
-232.5874917322778
 20
123.5835222866535
 30
0.0
 11
-232.5874917322778
 21
106.6835222866552
 31
0.0
  0
INSERT
  5
36C
330
1F
100
AcDbEntity
  8
0
 62
     2
100
AcDbBlockReference
  2
_Open30
 10
-232.5874917322778
 20
106.6835222866552
 30
0.0
 41
9.000008422845859
 42
8.99996810467093
 50
270.0
  0
LINE
  5
36D
330
1F
100
AcDbEntity
  8
0
  6
Continuous
 62
     2
370
    13
100
AcDbLine
 10
283.429367373956
 20
213.0699319568225
 30
0.0
 11
244.7360273739559
 21
213.0699319568225
 31
0.0
  0
INSERT
  5
36E
330
1F
100
AcDbEntity
  8
0
 62
     2
100
AcDbBlockReference
  2
_Open30
 10
244.7360273739559
 20
213.0699319568225
 30
0.0
 41
9.000008422845859
 42
8.99996810467093
 50
180.0
  0
LINE
  5
36F
330
1F
100
AcDbEntity
  8
0
  6
Continuous
 62
     2
370
    13
100
AcDbLine
 10
216.2360273739559
 20
213.0699319568225
 30
0.0
 11
231.2360273739559
 21
213.0699319568225
 31
0.0
  0
INSERT
  5
370
330
1F
100
AcDbEntity
  8
0
 62
     2
100
AcDbBlockReference
  2
_Open30
 10
231.2360273739559
 20
213.0699319568225
 30
0.0
 41
9.000008422845859
 42
8.99996810467093
 50
360.0
  0
LINE
  5
371
330
1F
100
AcDbEntity
  8
0
  6
Continuous
 62
     2
370
    13
100
AcDbLine
 10
204.4793103997483
 20
179.8768622866535
 30
0.0
 11
204.4793103997483
 21
141.1835222866534
 31
0.0
  0
INSERT
  5
372
330
1F
100
AcDbEntity
  8
0
 62
     2
100
AcDbBlockReference
  2
_Open30
 10
204.4793103997483
 20
141.1835222866534
 30
0.0
 41
9.000008422845859
 42
8.99996810467093
 50
270.0
  0
LINE
  5
373
330
1F
100
AcDbEntity
  8
0
  6
Continuous
 62
     2
370
    13
100
AcDbLine
 10
204.4793103997483
 20
109.6835222866555
 30
0.0
 11
204.4793103997483
 21
124.6835222866555
 31
0.0
  0
INSERT
  5
374
330
1F
100
AcDbEntity
  8
0
 62
     2
100
AcDbBlockReference
  2
_Open30
 10
204.4793103997483
 20
124.6835222866555
 30
0.0
 41
9.000008422845859
 42
8.99996810467093
 50
90.0
  0
LINE
  5
375
330
1F
100
AcDbEntity
  8
0
  6
Continuous
 62
     2
370
    13
100
AcDbLine
 10
-345.2639726260456
 20
-72.31647771334563
 30
0.0
 11
-345.2639726260456
 21
-57.31647771334563
 31
0.0
  0
INSERT
  5
376
330
1F
100
AcDbEntity
  8
0
 62
     2
100
AcDbBlockReference
  2
_Open30
 10
-345.2639726260456
 20
-57.31647771334563
 30
0.0
 41
9.000008422845859
 42
8.99996810467093
 50
90.0
  0
LINE
  5
377
330
1F
100
AcDbEntity
  8
0
  6
Continuous
 62
     2
370
    13
100
AcDbLine
 10
-345.2639726260456
 20
-26.31647771334639
 30
0.0
 11
-345.2639726260456
 21
-41.31647771334639
 31
0.0
  0
INSERT
  5
378
330
1F
100
AcDbEntity
  8
0
 62
     2
100
AcDbBlockReference
  2
_Open30
 10
-345.2639726260456
 20
-41.31647771334639
 30
0.0
 41
9.000008422845859
 42
8.99996810467093
 50
270.0
  0
TEXT
  5
379
330
1F
100
AcDbEntity
  8
0
 62
     4
100
AcDbText
 10
-30.76397262604542
 20
239.651438255402
 30
0.0
 40
12.0
  1
機幅
 41
0.6875
  7
dcStyle0
 72
     5
 11
-6.763972626045415
 21
239.651438255402
 31
0.0
100
AcDbText
  0
TEXT
  5
37A
330
1F
100
AcDbEntity
  8
0
 62
     4
100
AcDbText
 10
-40.7639777520435
 20
216.0699319568225
 30
0.0
 40
12.0
  1
ローラ幅
 41
0.7570049223778872
  7
dcStyle0
 72
     5
 11
7.236022247956498
 21
216.0699319568225
 31
0.0
100
AcDbText
  0
TEXT
  5
37B
330
1F
100
AcDbEntity
  8
0
 62
     4
100
AcDbText
 10
-81.76397262604405
 20
174.6835222866534
 30
0.0
 40
12.0
  1
ストッパ幅=呼び幅-100
 41
0.7406719709265401
  7
dcStyle0
 72
     5
 11
44.23602737395595
 21
174.6835222866534
 31
0.0
100
AcDbText
  0
ARC
  5
37C
330
1F
100
AcDbEntity
  8
4
  6
Continuous
 62
     7
370
    13
100
AcDbCircle
 10
5.062911027401469
 20
-21.19226025754502
 30
0.0
 40
1.137171469223476
100
AcDbArc
 50
289.1540477720923
 51
311.6540477720965
  0
ARC
  5
37D
330
1F
100
AcDbEntity
  8
4
  6
Continuous
 62
     7
370
    13
100
AcDbCircle
 10
4.373481915744833
 20
-20.90668936920186
 30
0.0
 40
1.837781388278606
100
AcDbArc
 50
321.8502263919613
 51
344.3502263919609
  0
ARC
  5
37E
330
1F
100
AcDbEntity
  8
4
  6
Continuous
 62
     7
370
    13
100
AcDbCircle
 10
3.845815718101903
 20
-20.37902317155938
 30
0.0
 40
2.514967110897529
100
AcDbArc
 50
335.9877732028182
 51
358.487773202817
  0
ARC
  5
37F
330
1F
100
AcDbEntity
  8
4
  6
Continuous
 62
     7
370
    13
100
AcDbCircle
 10
3.560244829758631
 20
-19.68959405990252
 30
0.0
 40
2.899886385634001
100
AcDbArc
 50
344.8925036932536
 51
7.392503693253796
  0
ARC
  5
380
330
1F
100
AcDbEntity
  8
4
  6
Continuous
 62
     7
370
    13
100
AcDbCircle
 10
3.560244829759085
 20
-18.94336136679051
 30
0.0
 40
2.899886385633707
100
AcDbArc
 50
352.6074963067462
 51
15.10749630674765
  0
ARC
  5
381
330
1F
100
AcDbEntity
  8
4
  6
Continuous
 62
     7
370
    13
100
AcDbCircle
 10
3.845815718102131
 20
-18.25393225513365
 30
0.0
 40
2.51496711089746
100
AcDbArc
 50
1.5122267971832
 51
24.01222679718265
  0
ARC
  5
382
330
1F
100
AcDbEntity
  8
4
  6
Continuous
 62
     7
370
    13
100
AcDbCircle
 10
4.373481915744833
 20
-17.72626605749117
 30
0.0
 40
1.837781388278606
100
AcDbArc
 50
15.64977360803913
 51
38.14977360803866
  0
ARC
  5
383
330
1F
100
AcDbEntity
  8
4
  6
Continuous
 62
     7
370
    13
100
AcDbCircle
 10
5.062911027401469
 20
-17.44069516914813
 30
0.0
 40
1.137171469223475
100
AcDbArc
 50
48.3459522279035
 51
70.84595222790861
  0
ARC
  5
384
330
1F
100
AcDbEntity
  8
4
  6
Continuous
 62
     7
370
    13
100
AcDbCircle
 10
5.809143720513475
 20
-17.44069516914813
 30
0.0
 40
1.137171469223502
100
AcDbArc
 50
109.1540477721013
 51
131.6540477720946
  0
ARC
  5
385
330
1F
100
AcDbEntity
  8
4
  6
Continuous
 62
     7
370
    13
100
AcDbCircle
 10
6.498572832170112
 20
-17.72626605749117
 30
0.0
 40
1.837781388278588
100
AcDbArc
 50
141.8502263919627
 51
164.3502263919626
  0
ARC
  5
386
330
1F
100
AcDbEntity
  8
4
  6
Continuous
 62
     7
370
    13
100
AcDbCircle
 10
7.026239029812814
 20
-18.25393225513365
 30
0.0
 40
2.514967110897464
100
AcDbArc
 50
155.9877732028174
 51
178.4877732028168
  0
ARC
  5
387
330
1F
100
AcDbEntity
  8
4
  6
Continuous
 62
     7
370
    13
100
AcDbCircle
 10
7.311809918155859
 20
-18.94336136679051
 30
0.0
 40
2.89988638563371
100
AcDbArc
 50
164.8925036932524
 51
187.3925036932532
  0
ARC
  5
388
330
1F
100
AcDbEntity
  8
4
  6
Continuous
 62
     7
370
    13
100
AcDbCircle
 10
7.311809918155859
 20
-19.6895940599024
 30
0.0
 40
2.89988638563378
100
AcDbArc
 50
172.6074963067468
 51
195.1074963067477
  0
ARC
  5
389
330
1F
100
AcDbEntity
  8
4
  6
Continuous
 62
     7
370
    13
100
AcDbCircle
 10
7.026239029813041
 20
-20.37902317155938
 30
0.0
 40
2.514967110897743
100
AcDbArc
 50
181.5122267971805
 51
204.0122267971817
  0
ARC
  5
38A
330
1F
100
AcDbEntity
  8
4
  6
Continuous
 62
     7
370
    13
100
AcDbCircle
 10
6.498572832170112
 20
-20.90668936920186
 30
0.0
 40
1.837781388278614
100
AcDbArc
 50
195.6497736080408
 51
218.1497736080401
  0
ARC
  5
38B
330
1F
100
AcDbEntity
  8
4
  6
Continuous
 62
     7
370
    13
100
AcDbCircle
 10
5.809143720513475
 20
-21.19226025754502
 30
0.0
 40
1.137171469223454
100
AcDbArc
 50
228.3459522279035
 51
250.8459522278969
  0
ARC
  5
38C
330
1F
100
AcDbEntity
  8
4
  6
Continuous
 62
     7
370
    13
100
AcDbCircle
 10
5.062911027401469
 20
23.30773974245499
 30
0.0
 40
1.137171469223479
100
AcDbArc
 50
289.1540477720914
 51
311.6540477720965
  0
ARC
  5
38D
330
1F
100
AcDbEntity
  8
4
  6
Continuous
 62
     7
370
    13
100
AcDbCircle
 10
4.373481915744605
 20
23.59331063079815
 30
0.0
 40
1.837781388278796
100
AcDbArc
 50
321.850226391965
 51
344.3502263919645
  0
ARC
  5
38E
330
1F
100
AcDbEntity
  8
4
  6
Continuous
 62
     7
370
    13
100
AcDbCircle
 10
3.845815718102131
 20
24.12097682844063
 30
0.0
 40
2.514967110897464
100
AcDbArc
 50
335.9877732028173
 51
358.4877732028175
  0
ARC
  5
38F
330
1F
100
AcDbEntity
  8
4
  6
Continuous
 62
     7
370
    13
100
AcDbCircle
 10
3.560244829758858
 20
24.81040594009749
 30
0.0
 40
2.899886385633745
100
AcDbArc
 50
344.8925036932536
 51
7.392503693253237
  0
ARC
  5
390
330
1F
100
AcDbEntity
  8
4
  6
Continuous
 62
     7
370
    13
100
AcDbCircle
 10
3.560244829758858
 20
25.5566386332095
 30
0.0
 40
2.899886385633747
100
AcDbArc
 50
352.6074963067462
 51
15.10749630674592
  0
ARC
  5
391
330
1F
100
AcDbEntity
  8
4
  6
Continuous
 62
     7
370
    13
100
AcDbCircle
 10
3.845815718102131
 20
26.24606774486636
 30
0.0
 40
2.514967110897467
100
AcDbArc
 50
1.512226797182551
 51
24.01222679718265
  0
ARC
  5
392
330
1F
100
AcDbEntity
  8
4
  6
Continuous
 62
     7
370
    13
100
AcDbCircle
 10
4.373481915744605
 20
26.77373394250883
 30
0.0
 40
1.837781388278789
100
AcDbArc
 50
15.64977360803552
 51
38.149773608035
  0
ARC
  5
393
330
1F
100
AcDbEntity
  8
4
  6
Continuous
 62
     7
370
    13
100
AcDbCircle
 10
5.062911027401469
 20
27.05930483085199
 30
0.0
 40
1.137171469223476
100
AcDbArc
 50
48.3459522279035
 51
70.84595222790861
  0
ARC
  5
394
330
1F
100
AcDbEntity
  8
4
  6
Continuous
 62
     7
370
    13
100
AcDbCircle
 10
5.809143720513475
 20
27.05930483085199
 30
0.0
 40
1.137171469223484
100
AcDbArc
 50
109.1540477721018
 51
131.6540477720956
  0
ARC
  5
395
330
1F
100
AcDbEntity
  8
4
  6
Continuous
 62
     7
370
    13
100
AcDbCircle
 10
6.498572832170339
 20
26.77373394250883
 30
0.0
 40
1.837781388278785
100
AcDbArc
 50
141.8502263919643
 51
164.3502263919645
  0
ARC
  5
396
330
1F
100
AcDbEntity
  8
4
  6
Continuous
 62
     7
370
    13
100
AcDbCircle
 10
7.026239029812814
 20
26.24606774486636
 30
0.0
 40
2.514967110897467
100
AcDbArc
 50
155.9877732028174
 51
178.4877732028175
  0
ARC
  5
397
330
1F
100
AcDbEntity
  8
4
  6
Continuous
 62
     7
370
    13
100
AcDbCircle
 10
7.311809918155859
 20
25.5566386332095
 30
0.0
 40
2.899886385633745
100
AcDbArc
 50
164.8925036932529
 51
187.3925036932538
  0
ARC
  5
398
330
1F
100
AcDbEntity
  8
4
  6
Continuous
 62
     7
370
    13
100
AcDbCircle
 10
7.311809918155859
 20
24.81040594009749
 30
0.0
 40
2.899886385633749
100
AcDbArc
 50
172.6074963067468
 51
195.1074963067471
  0
ARC
  5
399
330
1F
100
AcDbEntity
  8
4
  6
Continuous
 62
     7
370
    13
100
AcDbCircle
 10
7.026239029812814
 20
24.12097682844063
 30
0.0
 40
2.514967110897468
100
AcDbArc
 50
181.5122267971819
 51
204.0122267971826
  0
ARC
  5
39A
330
1F
100
AcDbEntity
  8
4
  6
Continuous
 62
     7
370
    13
100
AcDbCircle
 10
6.498572832170339
 20
23.59331063079815
 30
0.0
 40
1.837781388278798
100
AcDbArc
 50
195.6497736080355
 51
218.149773608035
  0
ARC
  5
39B
330
1F
100
AcDbEntity
  8
4
  6
Continuous
 62
     7
370
    13
100
AcDbCircle
 10
5.809143720513475
 20
23.30773974245499
 30
0.0
 40
1.137171469223475
100
AcDbArc
 50
228.3459522279035
 51
250.8459522278978
  0
POINT
  5
39C
330
1F
100
AcDbEntity
  8
6
  6
PHANTOM
 62
   140
100
AcDbPoint
 10
367.0009339370256
 20
38.68400702786445
 30
0.0
  0
CIRCLE
  5
39D
330
1F
100
AcDbEntity
  8
6
  6
PHANTOM
 62
   140
370
    13
100
AcDbCircle
 10
356.7009339370256
 20
38.68400702786445
 30
0.0
 40
4.1
  0
CIRCLE
  5
39E
330
1F
100
AcDbEntity
  8
6
  6
PHANTOM
 62
   140
370
    13
100
AcDbCircle
 10
356.7009339370256
 20
38.68400702786445
 30
0.0
 40
4.65
  0
LINE
  5
39F
330
1F
100
AcDbEntity
  8
6
  6
PHANTOM
 62
   140
370
    13
100
AcDbLine
 10
351.0009339370256
 20
45.78400702786447
 30
0.0
 11
364.0009339370256
 21
45.78400702786447
 31
0.0
  0
LINE
  5
3A0
330
1F
100
AcDbEntity
  8
6
  6
PHANTOM
 62
   140
370
    13
100
AcDbLine
 10
351.0009339370256
 20
31.58400702786448
 30
0.0
 11
364.0009339370256
 21
31.58400702786448
 31
0.0
  0
CIRCLE
  5
3A1
330
1F
100
AcDbEntity
  8
6
  6
PHANTOM
 62
   140
370
    13
100
AcDbCircle
 10
356.7009339370256
 20
38.68400702786445
 30
0.0
 40
1.6
  0
LINE
  5
3A2
330
1F
100
AcDbEntity
  8
6
  6
PHANTOM
 62
   140
370
    13
100
AcDbLine
 10
364.0009339370256
 20
45.78400702786447
 30
0.0
 11
364.0009339370256
 21
31.58400702786448
 31
0.0
  0
LINE
  5
3A3
330
1F
100
AcDbEntity
  8
6
  6
PHANTOM
 62
   140
370
    13
100
AcDbLine
 10
344.0009339370256
 20
39.93400702786445
 30
0.0
 11
339.4009339370257
 21
39.93400702786445
 31
0.0
  0
LINE
  5
3A4
330
1F
100
AcDbEntity
  8
6
  6
PHANTOM
 62
   140
370
    13
100
AcDbLine
 10
339.4009339370257
 20
37.43400702786445
 30
0.0
 11
344.0009339370256
 21
37.43400702786445
 31
0.0
  0
LINE
  5
3A5
330
1F
100
AcDbEntity
  8
6
  6
PHANTOM
 62
   140
370
    13
100
AcDbLine
 10
344.0009339370256
 20
44.18400702786445
 30
0.0
 11
344.0009339370256
 21
33.18400702786445
 31
0.0
  0
LINE
  5
3A6
330
1F
100
AcDbEntity
  8
6
  6
PHANTOM
 62
   140
370
    13
100
AcDbLine
 10
347.5009339370256
 20
43.68400702786445
 30
0.0
 11
347.5009339370256
 21
33.68400702786445
 31
0.0
  0
LINE
  5
3A7
330
1F
100
AcDbEntity
  8
6
  6
PHANTOM
 62
   140
370
    13
100
AcDbLine
 10
348.0059339370257
 20
44.68400702786445
 30
0.0
 11
348.0059339370257
 21
32.68400702786445
 31
0.0
  0
LINE
  5
3A8
330
1F
100
AcDbEntity
  8
6
  6
PHANTOM
 62
   140
370
    13
100
AcDbLine
 10
351.0009339370256
 20
45.78400702786447
 30
0.0
 11
351.0009339370256
 21
31.58400702786448
 31
0.0
  0
LINE
  5
3A9
330
1F
100
AcDbEntity
  8
6
  6
PHANTOM
 62
   140
370
    13
100
AcDbLine
 10
347.0009339370256
 20
44.18400702786445
 30
0.0
 11
347.0009339370256
 21
43.68400702786445
 31
0.0
  0
LINE
  5
3AA
330
1F
100
AcDbEntity
  8
6
  6
PHANTOM
 62
   140
370
    13
100
AcDbLine
 10
347.0009339370256
 20
43.68400702786445
 30
0.0
 11
348.0059339370257
 21
43.68400702786445
 31
0.0
  0
LINE
  5
3AB
330
1F
100
AcDbEntity
  8
6
  6
PHANTOM
 62
   140
370
    13
100
AcDbLine
 10
344.0009339370256
 20
44.18400702786445
 30
0.0
 11
347.0009339370256
 21
44.18400702786445
 31
0.0
  0
LINE
  5
3AC
330
1F
100
AcDbEntity
  8
6
  6
PHANTOM
 62
   140
370
    13
100
AcDbLine
 10
351.0059339370257
 20
44.68400702786445
 30
0.0
 11
348.0059339370257
 21
44.68400702786445
 31
0.0
  0
LINE
  5
3AD
330
1F
100
AcDbEntity
  8
6
  6
PHANTOM
 62
   140
370
    13
100
AcDbLine
 10
347.0009339370256
 20
33.68400702786445
 30
0.0
 11
347.0009339370256
 21
33.18400702786445
 31
0.0
  0
LINE
  5
3AE
330
1F
100
AcDbEntity
  8
6
  6
PHANTOM
 62
   140
370
    13
100
AcDbLine
 10
348.0059339370257
 20
33.68400702786445
 30
0.0
 11
347.0009339370256
 21
33.68400702786445
 31
0.0
  0
LINE
  5
3AF
330
1F
100
AcDbEntity
  8
6
  6
PHANTOM
 62
   140
370
    13
100
AcDbLine
 10
347.0009339370256
 20
33.18400702786445
 30
0.0
 11
344.0009339370256
 21
33.18400702786445
 31
0.0
  0
LINE
  5
3B0
330
1F
100
AcDbEntity
  8
6
  6
PHANTOM
 62
   140
370
    13
100
AcDbLine
 10
348.0059339370257
 20
32.68400702786445
 30
0.0
 11
351.0059339370257
 21
32.68400702786445
 31
0.0
  0
LINE
  5
3B1
330
1F
100
AcDbEntity
  8
6
  6
PHANTOM
 62
   140
370
    13
100
AcDbLine
 10
334.9009339370257
 20
34.68400702786445
 30
0.0
 11
334.9009339370257
 21
42.68400702786445
 31
0.0
  0
LINE
  5
3B2
330
1F
100
AcDbEntity
  8
6
  6
PHANTOM
 62
   140
370
    13
100
AcDbLine
 10
339.4009339370257
 20
42.68400702786445
 30
0.0
 11
339.4009339370257
 21
34.68400702786445
 31
0.0
  0
LINE
  5
3B3
330
1F
100
AcDbEntity
  8
6
  6
PHANTOM
 62
   140
370
    13
100
AcDbLine
 10
339.4009339370257
 20
42.68400702786445
 30
0.0
 11
334.9009339370257
 21
42.68400702786445
 31
0.0
  0
LINE
  5
3B4
330
1F
100
AcDbEntity
  8
6
  6
PHANTOM
 62
   140
370
    13
100
AcDbLine
 10
334.9009339370257
 20
34.68400702786445
 30
0.0
 11
339.4009339370257
 21
34.68400702786445
 31
0.0
  0
LINE
  5
3B5
330
1F
100
AcDbEntity
  8
6
  6
PHANTOM
 62
   140
370
    13
100
AcDbLine
 10
332.2249339370258
 20
38.68400702786445
 30
0.0
 11
372.5649339370257
 21
38.68400702786445
 31
0.0
  0
LINE
  5
3B6
330
1F
100
AcDbEntity
  8
6
  6
PHANTOM
 62
   140
370
    13
100
AcDbLine
 10
356.7009339370256
 20
43.93400702786445
 30
0.0
 11
356.7009339370256
 21
33.43400702786445
 31
0.0
  0
POINT
  5
3B7
330
1F
100
AcDbEntity
  8
6
  6
PHANTOM
 62
   140
100
AcDbPoint
 10
367.0009339370256
 20
38.68400702786445
 30
0.0
  0
POINT
  5
3B8
330
1F
100
AcDbEntity
  8
6
  6
PHANTOM
 62
   140
100
AcDbPoint
 10
367.0009339370256
 20
-28.31599297213557
 30
0.0
  0
CIRCLE
  5
3B9
330
1F
100
AcDbEntity
  8
6
  6
PHANTOM
 62
   140
370
    13
100
AcDbCircle
 10
356.7009339370256
 20
-28.31599297213557
 30
0.0
 40
4.1
  0
CIRCLE
  5
3BA
330
1F
100
AcDbEntity
  8
6
  6
PHANTOM
 62
   140
370
    13
100
AcDbCircle
 10
356.7009339370256
 20
-28.31599297213557
 30
0.0
 40
4.65
  0
LINE
  5
3BB
330
1F
100
AcDbEntity
  8
6
  6
PHANTOM
 62
   140
370
    13
100
AcDbLine
 10
351.0009339370256
 20
-21.21599297213555
 30
0.0
 11
364.0009339370256
 21
-21.21599297213555
 31
0.0
  0
LINE
  5
3BC
330
1F
100
AcDbEntity
  8
6
  6
PHANTOM
 62
   140
370
    13
100
AcDbLine
 10
351.0009339370256
 20
-35.41599297213553
 30
0.0
 11
364.0009339370256
 21
-35.41599297213553
 31
0.0
  0
CIRCLE
  5
3BD
330
1F
100
AcDbEntity
  8
6
  6
PHANTOM
 62
   140
370
    13
100
AcDbCircle
 10
356.7009339370256
 20
-28.31599297213557
 30
0.0
 40
1.6
  0
LINE
  5
3BE
330
1F
100
AcDbEntity
  8
6
  6
PHANTOM
 62
   140
370
    13
100
AcDbLine
 10
364.0009339370256
 20
-21.21599297213555
 30
0.0
 11
364.0009339370256
 21
-35.41599297213553
 31
0.0
  0
LINE
  5
3BF
330
1F
100
AcDbEntity
  8
6
  6
PHANTOM
 62
   140
370
    13
100
AcDbLine
 10
344.0009339370256
 20
-27.06599297213557
 30
0.0
 11
339.4009339370257
 21
-27.06599297213557
 31
0.0
  0
LINE
  5
3C0
330
1F
100
AcDbEntity
  8
6
  6
PHANTOM
 62
   140
370
    13
100
AcDbLine
 10
339.4009339370257
 20
-29.56599297213557
 30
0.0
 11
344.0009339370256
 21
-29.56599297213557
 31
0.0
  0
LINE
  5
3C1
330
1F
100
AcDbEntity
  8
6
  6
PHANTOM
 62
   140
370
    13
100
AcDbLine
 10
344.0009339370256
 20
-22.81599297213557
 30
0.0
 11
344.0009339370256
 21
-33.81599297213557
 31
0.0
  0
LINE
  5
3C2
330
1F
100
AcDbEntity
  8
6
  6
PHANTOM
 62
   140
370
    13
100
AcDbLine
 10
347.5009339370256
 20
-23.31599297213557
 30
0.0
 11
347.5009339370256
 21
-33.31599297213557
 31
0.0
  0
LINE
  5
3C3
330
1F
100
AcDbEntity
  8
6
  6
PHANTOM
 62
   140
370
    13
100
AcDbLine
 10
348.0059339370257
 20
-22.31599297213557
 30
0.0
 11
348.0059339370257
 21
-34.31599297213557
 31
0.0
  0
LINE
  5
3C4
330
1F
100
AcDbEntity
  8
6
  6
PHANTOM
 62
   140
370
    13
100
AcDbLine
 10
351.0009339370256
 20
-21.21599297213555
 30
0.0
 11
351.0009339370256
 21
-35.41599297213553
 31
0.0
  0
LINE
  5
3C5
330
1F
100
AcDbEntity
  8
6
  6
PHANTOM
 62
   140
370
    13
100
AcDbLine
 10
347.0009339370256
 20
-22.81599297213557
 30
0.0
 11
347.0009339370256
 21
-23.31599297213557
 31
0.0
  0
LINE
  5
3C6
330
1F
100
AcDbEntity
  8
6
  6
PHANTOM
 62
   140
370
    13
100
AcDbLine
 10
347.0009339370256
 20
-23.31599297213557
 30
0.0
 11
348.0059339370257
 21
-23.31599297213557
 31
0.0
  0
LINE
  5
3C7
330
1F
100
AcDbEntity
  8
6
  6
PHANTOM
 62
   140
370
    13
100
AcDbLine
 10
344.0009339370256
 20
-22.81599297213557
 30
0.0
 11
347.0009339370256
 21
-22.81599297213557
 31
0.0
  0
LINE
  5
3C8
330
1F
100
AcDbEntity
  8
6
  6
PHANTOM
 62
   140
370
    13
100
AcDbLine
 10
351.0059339370257
 20
-22.31599297213557
 30
0.0
 11
348.0059339370257
 21
-22.31599297213557
 31
0.0
  0
LINE
  5
3C9
330
1F
100
AcDbEntity
  8
6
  6
PHANTOM
 62
   140
370
    13
100
AcDbLine
 10
347.0009339370256
 20
-33.31599297213557
 30
0.0
 11
347.0009339370256
 21
-33.81599297213557
 31
0.0
  0
LINE
  5
3CA
330
1F
100
AcDbEntity
  8
6
  6
PHANTOM
 62
   140
370
    13
100
AcDbLine
 10
348.0059339370257
 20
-33.31599297213557
 30
0.0
 11
347.0009339370256
 21
-33.31599297213557
 31
0.0
  0
LINE
  5
3CB
330
1F
100
AcDbEntity
  8
6
  6
PHANTOM
 62
   140
370
    13
100
AcDbLine
 10
347.0009339370256
 20
-33.81599297213557
 30
0.0
 11
344.0009339370256
 21
-33.81599297213557
 31
0.0
  0
LINE
  5
3CC
330
1F
100
AcDbEntity
  8
6
  6
PHANTOM
 62
   140
370
    13
100
AcDbLine
 10
348.0059339370257
 20
-34.31599297213557
 30
0.0
 11
351.0059339370257
 21
-34.31599297213557
 31
0.0
  0
LINE
  5
3CD
330
1F
100
AcDbEntity
  8
6
  6
PHANTOM
 62
   140
370
    13
100
AcDbLine
 10
334.9009339370257
 20
-32.31599297213557
 30
0.0
 11
334.9009339370257
 21
-24.31599297213557
 31
0.0
  0
LINE
  5
3CE
330
1F
100
AcDbEntity
  8
6
  6
PHANTOM
 62
   140
370
    13
100
AcDbLine
 10
339.4009339370257
 20
-24.31599297213557
 30
0.0
 11
339.4009339370257
 21
-32.31599297213557
 31
0.0
  0
LINE
  5
3CF
330
1F
100
AcDbEntity
  8
6
  6
PHANTOM
 62
   140
370
    13
100
AcDbLine
 10
339.4009339370257
 20
-24.31599297213557
 30
0.0
 11
334.9009339370257
 21
-24.31599297213557
 31
0.0
  0
LINE
  5
3D0
330
1F
100
AcDbEntity
  8
6
  6
PHANTOM
 62
   140
370
    13
100
AcDbLine
 10
334.9009339370257
 20
-32.31599297213557
 30
0.0
 11
339.4009339370257
 21
-32.31599297213557
 31
0.0
  0
LINE
  5
3D1
330
1F
100
AcDbEntity
  8
6
  6
PHANTOM
 62
   140
370
    13
100
AcDbLine
 10
332.2249339370258
 20
-28.31599297213557
 30
0.0
 11
372.5649339370257
 21
-28.31599297213557
 31
0.0
  0
LINE
  5
3D2
330
1F
100
AcDbEntity
  8
6
  6
PHANTOM
 62
   140
370
    13
100
AcDbLine
 10
356.7009339370256
 20
-23.06599297213557
 30
0.0
 11
356.7009339370256
 21
-33.56599297213557
 31
0.0
  0
POINT
  5
3D3
330
1F
100
AcDbEntity
  8
6
  6
PHANTOM
 62
   140
100
AcDbPoint
 10
367.0009339370256
 20
-28.31599297213557
 30
0.0
  0
LINE
  5
3D4
330
1F
100
AcDbEntity
  8
6
  6
PHANTOM
 62
    91
370
    13
100
AcDbLine
 10
371.0009339370256
 20
33.94400702786449
 30
0.0
 11
364.0009339370256
 21
33.72500702786444
 31
0.0
  0
LINE
  5
3D5
330
1F
100
AcDbEntity
  8
6
  6
PHANTOM
 62
    91
370
    13
100
AcDbLine
 10
371.0009339370256
 20
43.42400702786446
 30
0.0
 11
364.0009339370256
 21
43.64200702786447
 31
0.0
  0
LINE
  5
3D6
330
1F
100
AcDbEntity
  8
6
  6
PHANTOM
 62
    91
370
    13
100
AcDbLine
 10
371.0009339370256
 20
43.42400702786446
 30
0.0
 11
371.0009339370256
 21
33.94400702786449
 31
0.0
  0
LINE
  5
3D7
330
1F
100
AcDbEntity
  8
6
  6
PHANTOM
 62
    91
370
    13
100
AcDbLine
 10
371.0009339370256
 20
42.84200702786446
 30
0.0
 11
364.0009339370256
 21
43.06100702786446
 31
0.0
  0
LINE
  5
3D8
330
1F
100
AcDbEntity
  8
6
  6
PHANTOM
 62
    91
370
    13
100
AcDbLine
 10
371.0009339370256
 20
34.52500702786445
 30
0.0
 11
364.0009339370256
 21
34.30600702786446
 31
0.0
  0
LINE
  5
3D9
330
1F
100
AcDbEntity
  8
6
  6
PHANTOM
 62
    91
370
    13
100
AcDbLine
 10
371.0009339370256
 20
-33.05599297213552
 30
0.0
 11
364.0009339370256
 21
-33.27499297213557
 31
0.0
  0
LINE
  5
3DA
330
1F
100
AcDbEntity
  8
6
  6
PHANTOM
 62
    91
370
    13
100
AcDbLine
 10
371.0009339370256
 20
-23.57599297213556
 30
0.0
 11
364.0009339370256
 21
-23.35799297213554
 31
0.0
  0
LINE
  5
3DB
330
1F
100
AcDbEntity
  8
6
  6
PHANTOM
 62
    91
370
    13
100
AcDbLine
 10
371.0009339370256
 20
-23.57599297213556
 30
0.0
 11
371.0009339370256
 21
-33.05599297213552
 31
0.0
  0
LINE
  5
3DC
330
1F
100
AcDbEntity
  8
6
  6
PHANTOM
 62
    91
370
    13
100
AcDbLine
 10
371.0009339370256
 20
-24.15799297213555
 30
0.0
 11
364.0009339370256
 21
-23.93899297213556
 31
0.0
  0
LINE
  5
3DD
330
1F
100
AcDbEntity
  8
6
  6
PHANTOM
 62
    91
370
    13
100
AcDbLine
 10
371.0009339370256
 20
-32.47499297213556
 30
0.0
 11
364.0009339370256
 21
-32.69399297213555
 31
0.0
  0
INSERT
  5
3DE
330
1F
100
AcDbEntity
  8
L-09
  6
Continuous
100
AcDbBlockReference
  2
DC_GROUP_W_GSTP_S_050_1_1
 10
0.0
 20
0.0
 30
0.0
  0
INSERT
  5
3DF
330
1F
100
AcDbEntity
  8
7
  6
Continuous
100
AcDbBlockReference
  2
DC_GROUP_W_GSTP_S_050_1_2
 10
0.0
 20
0.0
 30
0.0
  0
LINE
  5
3E0
330
1F
100
AcDbEntity
  8
L-2
  6
Continuous
 62
     3
370
    13
100
AcDbLine
 10
-315.2639726260441
 20
131.6835222866552
 30
0.0
 11
-267.2639726260418
 21
131.6835222866552
 31
0.0
  0
LINE
  5
3E1
330
1F
100
AcDbEntity
  8
L-2
  6
Continuous
 62
     3
370
    13
100
AcDbLine
 10
-265.7639726260441
 20
125.6835222866552
 30
0.0
 11
-266.7639726260418
 21
125.6835222866552
 31
0.0
  0
LINE
  5
3E2
330
1F
100
AcDbEntity
  8
L-2
  6
Continuous
 62
     3
370
    13
100
AcDbLine
 10
-266.7639726260418
 20
125.6835222866552
 30
0.0
 11
-266.7639726260441
 21
131.1835222866552
 31
0.0
  0
LINE
  5
3E3
330
1F
100
AcDbEntity
  8
L-2
  6
Continuous
 62
     3
370
    13
100
AcDbLine
 10
-265.7639726260441
 20
125.6835222866552
 30
0.0
 11
-265.7639726260441
 21
131.6835222866552
 31
0.0
  0
LINE
  5
3E4
330
1F
100
AcDbEntity
  8
L-2
  6
Continuous
 62
     3
370
    13
100
AcDbLine
 10
-316.2639726260441
 20
98.68352228665476
 30
0.0
 11
-316.2639726260441
 21
131.6835222866552
 31
0.0
  0
LINE
  5
3E5
330
1F
100
AcDbEntity
  8
L-2
  6
Continuous
 62
     3
370
    13
100
AcDbLine
 10
-266.7639726260441
 20
132.6835222866552
 30
0.0
 11
-315.2639726260441
 21
132.6835222866552
 31
0.0
  0
LINE
  5
3E6
330
1F
100
AcDbEntity
  8
L-2
  6
Continuous
 62
     3
370
    13
100
AcDbLine
 10
-315.2639726260441
 20
98.68352228665476
 30
0.0
 11
-315.2639726260441
 21
131.6835222866552
 31
0.0
  0
LINE
  5
3E7
330
1F
100
AcDbEntity
  8
L-2
  6
Continuous
 62
     3
370
    13
100
AcDbLine
 10
-315.2639726260441
 20
98.68352228665476
 30
0.0
 11
-316.2639726260441
 21
98.68352228665476
 31
0.0
  0
ARC
  5
3E8
330
1F
100
AcDbEntity
  8
L-2
  6
Continuous
 62
     3
370
    13
100
AcDbCircle
 10
-266.7639726260441
 20
131.6835222866552
 30
0.0
 40
1.0
100
AcDbArc
 50
0.0
 51
90.0
  0
ARC
  5
3E9
330
1F
100
AcDbEntity
  8
L-2
  6
Continuous
 62
     3
370
    13
100
AcDbCircle
 10
-267.2639726260441
 20
131.1835222866552
 30
0.0
 40
0.5
100
AcDbArc
 50
0.0
 51
89.9999999997655
  0
ARC
  5
3EA
330
1F
100
AcDbEntity
  8
L-2
  6
Continuous
 62
     3
370
    13
100
AcDbCircle
 10
-315.2639726260441
 20
131.6835222866552
 30
0.0
 40
1.0
100
AcDbArc
 50
90.0
 51
180.0
  0
LINE
  5
3EB
330
1F
100
AcDbEntity
  8
L-WORK
  6
Continuous
 62
     7
370
    13
100
AcDbLine
 10
-277.4674219275657
 20
106.1835222866545
 30
0.0
 11
-270.1046486162927
 21
106.1835222866545
 31
0.0
  0
LINE
  5
3EC
330
1F
100
AcDbEntity
  8
L-WORK
  6
Continuous
 62
     7
370
    13
100
AcDbLine
 10
-267.4342745470508
 20
101.1835222866545
 30
0.0
 11
-259.2639726260418
 21
101.1835222866545
 31
0.0
  0
LINE
  5
3ED
330
1F
100
AcDbEntity
  8
L-WORK
  6
Continuous
 62
     7
370
    13
100
AcDbLine
 10
-267.8938470620596
 20
101.486562637365
 30
0.0
 11
-269.8289051072857
 21
106.0016980762286
 31
0.0
  0
LINE
  5
3EE
330
1F
100
AcDbEntity
  8
L-WORK
  6
Continuous
 62
     7
370
    13
100
AcDbLine
 10
-299.2639726260418
 20
81.18352228665448
 30
0.0
 11
-299.2639726260418
 21
97.18352228665454
 31
0.0
  0
LINE
  5
3EF
330
1F
100
AcDbEntity
  8
L-WORK
  6
Continuous
 62
     7
370
    13
100
AcDbLine
 10
-301.2639726260418
 20
107.1835222866545
 30
0.0
 11
-301.2639726260418
 21
99.18352228665454
 31
0.0
  0
LINE
  5
3F0
330
1F
100
AcDbEntity
  8
L-WORK
  6
Continuous
 62
     7
370
    13
100
AcDbLine
 10
-259.2639726260418
 20
101.1835222866545
 30
0.0
 11
-259.2639726260418
 21
90.18352228665454
 31
0.0
  0
LINE
  5
3F1
330
1F
100
AcDbEntity
  8
L-WORK
  6
Continuous
 62
     7
370
    13
100
AcDbLine
 10
-310.2639726260418
 20
58.483522286655
 30
0.0
 11
-310.2639726260418
 21
78.18352228665448
 31
0.0
  0
LINE
  5
3F2
330
1F
100
AcDbEntity
  8
L-WORK
  6
Continuous
 62
     7
370
    13
100
AcDbLine
 10
-310.2639726260418
 20
45.18352228665533
 30
0.0
 11
-310.2639726260418
 21
49.88352228665424
 31
0.0
  0
LINE
  5
3F3
330
1F
100
AcDbEntity
  8
L-WORK
  6
Continuous
 62
     7
370
    13
100
AcDbLine
 10
-303.7639726260418
 20
45.68630015017142
 30
0.0
 11
-303.7639726260418
 21
77.68352228665448
 31
0.0
  0
LINE
  5
3F4
330
1F
100
AcDbEntity
  8
L-WORK
  6
Continuous
 62
     7
370
    13
100
AcDbLine
 10
-301.2639726260418
 20
107.1835222866545
 30
0.0
 11
-293.2639726260418
 21
107.1835222866545
 31
0.0
  0
LINE
  5
3F5
330
1F
100
AcDbEntity
  8
L-WORK
  6
Continuous
 62
     7
370
    13
100
AcDbLine
 10
-293.2639726260418
 20
100.7660979816104
 30
0.0
 11
-293.2639726260418
 21
107.1835222866545
 31
0.0
  0
LINE
  5
3F6
330
1F
100
AcDbEntity
  8
L-WORK
  6
Continuous
 62
     7
370
    13
100
AcDbLine
 10
-310.2639726260418
 20
78.18352228665448
 30
0.0
 11
-302.2639726260418
 21
78.18352228665448
 31
0.0
  0
LINE
  5
3F7
330
1F
100
AcDbEntity
  8
L-WORK
  6
Continuous
 62
     7
370
    13
100
AcDbLine
 10
-310.2639726260418
 20
45.18352228665533
 30
0.0
 11
-304.2639726260418
 21
45.18352228665533
 31
0.0
  0
ARC
  5
3F8
330
1F
100
AcDbEntity
  8
L-WORK
  6
Continuous
 62
     7
370
    13
100
AcDbCircle
 10
-283.2639726260418
 20
96.18352228665454
 30
0.0
 40
11.0
100
AcDbArc
 50
344.1733798681274
 51
59.13819761012118
  0
ARC
  5
3F9
330
1F
100
AcDbEntity
  8
L-WORK
  6
Continuous
 62
     7
370
    13
100
AcDbCircle
 10
-304.2639726260418
 20
90.18352228665454
 30
0.0
 40
44.99999999999912
100
AcDbArc
 50
270.0
 51
0.0
  0
ARC
  5
3FA
330
1F
100
AcDbEntity
  8
L-WORK
  6
Continuous
 62
     7
370
    13
100
AcDbCircle
 10
-283.2639726260418
 20
96.18352228665454
 30
0.0
 40
11.00000000000006
100
AcDbArc
 50
155.3800226713432
 51
344.1733798681274
  0
ARC
  5
3FB
330
1F
100
AcDbEntity
  8
L-WORK
  6
Continuous
 62
     7
370
    13
100
AcDbCircle
 10
-270.1046486162927
 20
105.8835222866548
 30
0.0
 40
0.300000000001565
100
AcDbArc
 50
23.19859051353664
 51
90.0
  0
ARC
  5
3FC
330
1F
100
AcDbEntity
  8
L-WORK
  6
Continuous
 62
     7
370
    13
100
AcDbCircle
 10
-277.4674219275657
 20
105.8835222866548
 30
0.0
 40
0.2999999999998977
100
AcDbArc
 50
90.0
 51
239.1381976101712
  0
ARC
  5
3FD
330
1F
100
AcDbEntity
  8
L-WORK
  6
Continuous
 62
     7
370
    13
100
AcDbCircle
 10
-267.4342745470508
 20
101.6835222866545
 30
0.0
 40
0.4999999999999188
100
AcDbArc
 50
203.198590513643
 51
270.0
  0
ARC
  5
3FE
330
1F
100
AcDbEntity
  8
L-WORK
  6
Continuous
 62
     7
370
    13
100
AcDbCircle
 10
-300.2639726260418
 20
97.18352228665454
 30
0.0
 40
1.0
100
AcDbArc
 50
0.0
 51
90.0
  0
ARC
  5
3FF
330
1F
100
AcDbEntity
  8
L-WORK
  6
Continuous
 62
     7
370
    13
100
AcDbCircle
 10
-302.2639726260418
 20
81.18352228665448
 30
0.0
 40
3.0
100
AcDbArc
 50
270.0
 51
0.0
  0
ARC
  5
400
330
1F
100
AcDbEntity
  8
L-WORK
  6
Continuous
 62
     7
370
    13
100
AcDbCircle
 10
-304.2639726260418
 20
45.68352228665533
 30
0.0
 40
0.5
100
AcDbArc
 50
270.0
 51
0.0
  0
ARC
  5
401
330
1F
100
AcDbEntity
  8
L-WORK
  6
Continuous
 62
     7
370
    13
100
AcDbCircle
 10
-304.2639726260418
 20
77.68352228665448
 30
0.0
 40
0.5
100
AcDbArc
 50
0.0
 51
90.0
  0
ARC
  5
402
330
1F
100
AcDbEntity
  8
L-WORK
  6
Continuous
 62
     7
370
    13
100
AcDbCircle
 10
-310.3639726260408
 20
58.48352228665443
 30
0.0
 40
0.1000000000001933
100
AcDbArc
 50
270.0
 51
0.0000000003419732
  0
ARC
  5
403
330
1F
100
AcDbEntity
  8
L-WORK
  6
Continuous
 62
     7
370
    13
100
AcDbCircle
 10
-310.3639726260408
 20
49.88352228665453
 30
0.0
 40
0.0999999999989996
100
AcDbArc
 50
359.9999999998371
 51
90.0
  0
ARC
  5
404
330
1F
100
AcDbEntity
  8
L-WORK
  6
Continuous
 62
     7
370
    13
100
AcDbCircle
 10
-300.2639726260418
 20
99.18352228665454
 30
0.0
 40
1.0
100
AcDbArc
 50
180.0
 51
270.0
  0
LINE
  5
405
330
1F
100
AcDbEntity
  8
L-WORK
  6
PHANTOM
 62
    91
370
    13
100
AcDbLine
 10
-267.7639726260418
 20
101.1835222866545
 30
0.0
 11
-267.8938470620596
 21
101.486562637365
 31
0.0
  0
LINE
  5
406
330
1F
100
AcDbEntity
  8
L-WORK
  6
PHANTOM
 62
    91
370
    13
100
AcDbLine
 10
-267.7639726260418
 20
101.1835222866545
 30
0.0
 11
-267.4342745470508
 21
101.1835222866545
 31
0.0
  0
LINE
  5
407
330
1F
100
AcDbEntity
  8
L-WORK
  6
CENTERX2
 62
     3
370
    13
100
AcDbLine
 10
-295.7639726260409
 20
96.18352228665454
 30
0.0
 11
-271.4002862504744
 21
96.18352228665454
 31
0.0
  0
LINE
  5
408
330
1F
100
AcDbEntity
  8
L-WORK
  6
CENTERX2
 62
     3
370
    13
100
AcDbLine
 10
-283.2639726260418
 20
78.3893050353725
 30
0.0
 11
-283.2639726260418
 21
110.4985018726592
 31
0.0
  0
LINE
  5
409
330
1F
100
AcDbEntity
  8
L-2
  6
Continuous
 62
     7
370
    13
100
AcDbLine
 10
-315.2639726260441
 20
115.6835222866552
 30
0.0
 11
-310.2639726260441
 21
115.6835222866552
 31
0.0
  0
LINE
  5
40A
330
1F
100
AcDbEntity
  8
L-2
  6
Continuous
 62
     7
370
    13
100
AcDbLine
 10
-315.2639726260441
 20
15.68352228665522
 30
0.0
 11
-315.2639726260441
 21
115.6835222866552
 31
0.0
  0
LINE
  5
40B
330
1F
100
AcDbEntity
  8
L-2
  6
Continuous
 62
     7
370
    13
100
AcDbLine
 10
-310.2639726260441
 20
15.68352228665522
 30
0.0
 11
-315.2639726260441
 21
15.68352228665522
 31
0.0
  0
LINE
  5
40C
330
1F
100
AcDbEntity
  8
L-2
  6
Continuous
 62
     7
370
    13
100
AcDbLine
 10
-310.2639726260441
 20
115.6835222866552
 30
0.0
 11
-310.2639726260441
 21
15.68352228665522
 31
0.0
  0
LINE
  5
40D
330
1F
100
AcDbEntity
  8
L-2
  6
Continuous
 62
     7
370
    13
100
AcDbLine
 10
244.7360273739582
 20
115.6835222866552
 30
0.0
 11
244.7360273739582
 21
15.68352228665522
 31
0.0
  0
LINE
  5
40E
330
1F
100
AcDbEntity
  8
L-2
  6
Continuous
 62
     7
370
    13
100
AcDbLine
 10
244.7360273739582
 20
15.68352228665522
 30
0.0
 11
239.7360273739582
 21
15.68352228665522
 31
0.0
  0
LINE
  5
40F
330
1F
100
AcDbEntity
  8
L-2
  6
Continuous
 62
     7
370
    13
100
AcDbLine
 10
239.7360273739582
 20
15.68352228665522
 30
0.0
 11
239.7360273739582
 21
115.6835222866552
 31
0.0
  0
LINE
  5
410
330
1F
100
AcDbEntity
  8
L-2
  6
Continuous
 62
     7
370
    13
100
AcDbLine
 10
244.7360273739582
 20
115.6835222866552
 30
0.0
 11
239.7360273739582
 21
115.6835222866552
 31
0.0
  0
LINE
  5
411
330
1F
100
AcDbEntity
  8
0
  6
Continuous
 62
     7
370
    25
100
AcDbLine
 10
-265.0639836650435
 20
110.6835214671551
 30
0.0
 11
-264.7639785860438
 21
110.9835218881552
 31
0.0
  0
LINE
  5
412
330
1F
100
AcDbEntity
  8
0
  6
Continuous
 62
     7
370
    25
100
AcDbLine
 10
-266.7639826400437
 20
110.6835214671551
 30
0.0
 11
-265.0639836650435
 21
110.6835214671551
 31
0.0
  0
LINE
  5
413
330
1F
100
AcDbEntity
  8
0
  6
Continuous
 62
     7
370
    25
100
AcDbLine
 10
-266.7639826400437
 20
108.6835211391551
 30
0.0
 11
-266.7639826400437
 21
109.0016553431551
 31
0.0
  0
LINE
  5
414
330
1F
100
AcDbEntity
  8
0
  6
Continuous
 62
     7
370
    25
100
AcDbLine
 10
-289.663997755044
 20
108.6835211391551
 30
0.0
 11
-285.6639896490433
 21
108.6835211391551
 31
0.0
  0
LINE
  5
415
330
1F
100
AcDbEntity
  8
0
  6
Continuous
 62
     7
370
    25
100
AcDbLine
 10
-285.6639896490433
 20
122.6835218041552
 30
0.0
 11
-289.663997755044
 21
122.6835218041552
 31
0.0
  0
LINE
  5
416
330
1F
100
AcDbEntity
  8
0
  6
Continuous
 62
     7
370
    25
100
AcDbLine
 10
-294.3639730070436
 20
120.6835217091552
 30
0.0
 11
-294.6639929870435
 21
120.3835217531551
 31
0.0
  0
LINE
  5
417
330
1F
100
AcDbEntity
  8
0
  6
Continuous
 62
     7
370
    25
100
AcDbLine
 10
-294.6639929870435
 20
110.9835218881552
 30
0.0
 11
-294.3639730070436
 21
110.6835214671551
 31
0.0
  0
LINE
  5
418
330
1F
100
AcDbEntity
  8
0
  6
Continuous
 62
     7
370
    25
100
AcDbLine
 10
230.2360364339588
 20
124.6835218991552
 30
0.0
 11
-263.7639765600434
 21
124.6835218991552
 31
0.0
  0
ARC
  5
419
330
1F
100
AcDbEntity
  8
0
  6
Continuous
 62
     7
370
    25
100
AcDbCircle
 10
230.2360273739582
 20
123.683521899155
 30
0.0
 40
0.9999999999996589
100
AcDbArc
 50
0.0
 51
90.0
  0
ARC
  5
41A
330
1F
100
AcDbEntity
  8
0
  6
Continuous
 62
     7
370
    25
100
AcDbCircle
 10
230.2360273739582
 20
107.6835218991551
 30
0.0
 40
0.999999999999943
100
AcDbArc
 50
270.0
 51
0.0
  0
ARC
  5
41B
330
1F
100
AcDbEntity
  8
0
  6
Continuous
 62
     7
370
    25
100
AcDbCircle
 10
-263.7639828780434
 20
123.683521899155
 30
0.0
 40
0.9999999999996589
100
AcDbArc
 50
90.0
 51
180.0
  0
LINE
  5
41C
330
1F
100
AcDbEntity
  8
0
  6
Continuous
 62
     7
370
    25
100
AcDbLine
 10
-264.7639785860438
 20
107.6835209751551
 30
0.0
 11
-264.7639785860438
 21
123.683521851155
 31
0.0
  0
LINE
  5
41D
330
1F
100
AcDbEntity
  8
0
  6
Continuous
 62
     7
370
    25
100
AcDbLine
 10
-266.7639826400437
 20
122.6835218041552
 30
0.0
 11
-270.6639890530437
 21
122.6835218041552
 31
0.0
  0
LINE
  5
41E
330
1F
100
AcDbEntity
  8
0
  6
Continuous
 62
     7
370
    25
100
AcDbLine
 10
-264.7639785860438
 20
120.3835217531551
 30
0.0
 11
-265.0639836650435
 21
120.6835217091552
 31
0.0
  0
LINE
  5
41F
330
1F
100
AcDbEntity
  8
0
  6
Continuous
 62
     7
370
    25
100
AcDbLine
 10
-265.0639836650435
 20
120.6835217091552
 30
0.0
 11
-266.7639826400437
 21
120.6835217091552
 31
0.0
  0
LINE
  5
420
330
1F
100
AcDbEntity
  8
0
  6
Continuous
 62
     7
370
    25
100
AcDbLine
 10
-266.7639826400437
 20
109.0016553431551
 30
0.0
 11
-266.7639826400437
 21
122.6835218041552
 31
0.0
  0
LINE
  5
421
330
1F
100
AcDbEntity
  8
0
  6
Continuous
 62
     7
370
    25
100
AcDbLine
 10
-265.0639836650435
 20
110.6835214671551
 30
0.0
 11
-265.0639836650435
 21
120.6835217091552
 31
0.0
  0
LINE
  5
422
330
1F
100
AcDbEntity
  8
0
  6
Continuous
 62
     7
370
    25
100
AcDbLine
 10
-270.6639890530437
 20
108.6835211391551
 30
0.0
 11
-266.7639826400437
 21
108.6835211391551
 31
0.0
  0
ARC
  5
423
330
1F
100
AcDbEntity
  8
0
  6
Continuous
 62
     7
370
    25
100
AcDbCircle
 10
-263.7639828780434
 20
107.6835218991551
 30
0.0
 40
0.999999999999943
100
AcDbArc
 50
180.0
 51
270.0
  0
LINE
  5
424
330
1F
100
AcDbEntity
  8
0
  6
Continuous
 62
     7
370
    25
100
AcDbLine
 10
-270.6639890530437
 20
123.683521851155
 30
0.0
 11
-285.6639896490433
 21
123.683521851155
 31
0.0
  0
LINE
  5
425
330
1F
100
AcDbEntity
  8
0
  6
Continuous
 62
     7
370
    25
100
AcDbLine
 10
-285.6639896490433
 20
107.6835209751551
 30
0.0
 11
-270.6639890530437
 21
107.6835209751551
 31
0.0
  0
LINE
  5
426
330
1F
100
AcDbEntity
  8
0
  6
Continuous
 62
     7
370
    25
100
AcDbLine
 10
-294.3639730070436
 20
110.6835214671551
 30
0.0
 11
-289.663997755044
 21
110.6835214671551
 31
0.0
  0
LINE
  5
427
330
1F
100
AcDbEntity
  8
0
  6
Continuous
 62
     7
370
    25
100
AcDbLine
 10
-289.663997755044
 20
120.6835217091552
 30
0.0
 11
-294.3639730070436
 21
120.6835217091552
 31
0.0
  0
LINE
  5
428
330
1F
100
AcDbEntity
  8
0
  6
Continuous
 62
     7
370
    25
100
AcDbLine
 10
-294.6639929870435
 20
119.6835220111553
 30
0.0
 11
-301.7639790630437
 21
119.6835220111553
 31
0.0
  0
LINE
  5
429
330
1F
100
AcDbEntity
  8
0
  6
Continuous
 62
     7
370
    25
100
AcDbLine
 10
-301.7639790630437
 20
111.6835216311552
 30
0.0
 11
-294.6639929870435
 21
111.6835216311552
 31
0.0
  0
LINE
  5
42A
330
1F
100
AcDbEntity
  8
0
  6
Continuous
 62
     7
370
    25
100
AcDbLine
 10
-301.7639790630437
 20
119.6835220111553
 30
0.0
 11
-302.2639726260441
 21
119.1835219291551
 31
0.0
  0
LINE
  5
42B
330
1F
100
AcDbEntity
  8
0
  6
Continuous
 62
     7
370
    25
100
AcDbLine
 10
-301.7639790630437
 20
119.6835220111553
 30
0.0
 11
-301.7639790630437
 21
116.8756934131552
 31
0.0
  0
LINE
  5
42C
330
1F
100
AcDbEntity
  8
0
  6
Continuous
 62
     7
370
    25
100
AcDbLine
 10
-301.7639790630437
 20
116.8756934131552
 30
0.0
 11
-301.7639790630437
 21
111.6835216311552
 31
0.0
  0
LINE
  5
42D
330
1F
100
AcDbEntity
  8
0
  6
Continuous
 62
     7
370
    25
100
AcDbLine
 10
-302.2639726260441
 20
112.183521713155
 30
0.0
 11
-301.7639790630437
 21
111.6835216311552
 31
0.0
  0
LINE
  5
42E
330
1F
100
AcDbEntity
  8
0
  6
Continuous
 62
     7
370
    25
100
AcDbLine
 10
-263.7639765600434
 20
106.6835226741552
 30
0.0
 11
-218.7639726260443
 21
106.6835226741552
 31
0.0
  0
LINE
  5
42F
330
1F
100
AcDbEntity
  8
0
  6
Continuous
 62
     7
370
    25
100
AcDbLine
 10
181.2360273739559
 20
106.6835226741552
 30
0.0
 11
230.2360364339588
 21
106.6835226741552
 31
0.0
  0
LINE
  5
430
330
1F
100
AcDbEntity
  8
0
  6
Continuous
 62
     8
370
    25
100
AcDbLine
 10
230.2360364339588
 20
123.4619950191553
 30
0.0
 11
230.2360364339588
 21
124.6835218991552
 31
0.0
  0
LINE
  5
431
330
1F
100
AcDbEntity
  8
0
  6
Continuous
 62
     8
370
    25
100
AcDbLine
 10
230.2360364339588
 20
106.6835226741552
 30
0.0
 11
230.2360364339588
 21
123.4619950191553
 31
0.0
  0
LINE
  5
432
330
1F
100
AcDbEntity
  8
0
  6
Continuous
 62
     8
370
    25
100
AcDbLine
 10
-263.7639765600434
 20
124.6835218991552
 30
0.0
 11
-263.7639765600434
 21
106.6835226741552
 31
0.0
  0
LINE
  5
433
330
1F
100
AcDbEntity
  8
0
  6
DASHED2
 62
     4
370
    25
100
AcDbLine
 10
-218.7639726260443
 20
106.6835226741552
 30
0.0
 11
181.2360273739559
 21
106.6835226741552
 31
0.0
  0
LINE
  5
434
330
1F
100
AcDbEntity
  8
0
  6
Continuous
 62
     7
370
    13
100
AcDbLine
 10
-294.6639929870435
 20
120.3835217531551
 30
0.0
 11
-294.6639929870435
 21
110.9835218881552
 31
0.0
  0
LINE
  5
435
330
1F
100
AcDbEntity
  8
0
  6
Continuous
 62
     7
370
    13
100
AcDbLine
 10
-289.663997755044
 20
110.6835214671551
 30
0.0
 11
-289.663997755044
 21
108.6835211391551
 31
0.0
  0
LINE
  5
436
330
1F
100
AcDbEntity
  8
0
  6
Continuous
 62
     7
370
    13
100
AcDbLine
 10
-289.663997755044
 20
122.6835218041552
 30
0.0
 11
-289.663997755044
 21
120.6835217091552
 31
0.0
  0
LINE
  5
437
330
1F
100
AcDbEntity
  8
0
  6
Continuous
 62
     7
370
    13
100
AcDbLine
 10
-285.6639896490433
 20
123.683521851155
 30
0.0
 11
-285.6639896490433
 21
122.6835218041552
 31
0.0
  0
LINE
  5
438
330
1F
100
AcDbEntity
  8
0
  6
Continuous
 62
     7
370
    13
100
AcDbLine
 10
-285.6639896490433
 20
108.6835211391551
 30
0.0
 11
-285.6639896490433
 21
107.6835209751551
 31
0.0
  0
LINE
  5
439
330
1F
100
AcDbEntity
  8
0
  6
Continuous
 62
     7
370
    13
100
AcDbLine
 10
-270.6639890530437
 20
108.6835211391551
 30
0.0
 11
-270.6639890530437
 21
107.6835209751551
 31
0.0
  0
LINE
  5
43A
330
1F
100
AcDbEntity
  8
0
  6
Continuous
 62
     7
370
    13
100
AcDbLine
 10
-270.6639890530437
 20
123.683521851155
 30
0.0
 11
-270.6639890530437
 21
122.6835218041552
 31
0.0
  0
INSERT
  5
43B
330
1F
100
AcDbEntity
  8
ZUWAKU
  6
Continuous
100
AcDbBlockReference
  2
DC_GROUP_W_GSTP_S_050_1_3
 10
0.0
 20
0.0
 30
0.0
  0
INSERT
  5
43C
330
1F
100
AcDbEntity
  8
ZUWAKU
  6
Continuous
100
AcDbBlockReference
  2
DC_GROUP_W_GSTP_S_050_1_4
 10
0.0
 20
0.0
 30
0.0
  0
INSERT
  5
43D
330
1F
100
AcDbEntity
  8
0
  6
Continuous
100
AcDbBlockReference
  2
DC_GROUP_W_GSTP_S_050_1_5
 10
0.0
 20
0.0
 30
0.0
  0
VIEWPORT
  5
BC
330
1B
100
AcDbEntity
 67
     1
  8
0
100
AcDbViewport
 10
0.0
 20
0.0
 30
0.0
 40
3546.0
 41
2432.305379888601
 68
     1
 69
     1
 12
0.0
 22
0.0
 13
0.0
 23
0.0
 14
0.5
 24
0.5
 15
0.0
 25
0.0
 16
0.0
 26
0.0
 36
1.0
 17
0.0
 27
0.0
 37
0.0
 42
50.0
 43
0.0
 44
0.0
 45
2432.305379888601
 50
0.0
 51
0.0
 72
   100
 90
   557152
  1

281
     0
 71
     1
 74
     0
110
0.0
120
0.0
130
0.0
111
1.0
121
0.0
131
0.0
112
0.0
122
1.0
132
0.0
 79
     0
146
0.0
170
     0
 61
     5
348
2F
292
     1
282
     1
141
0.0
142
0.0
 63
   256
  0
ENDSEC
  0
SECTION
  2
OBJECTS
  0
DICTIONARY
  5
C
330
0
100
AcDbDictionary
281
     1
  3
ACAD_DETAILVIEWSTYLE
350
475
  3
ACAD_GROUP
350
D
  3
ACAD_LAYOUT
350
1A
  3
ACAD_MATERIAL
350
43
  3
ACAD_MLEADERSTYLE
350
6B
  3
ACAD_MLINESTYLE
350
17
  3
ACAD_PLOTSETTINGS
350
19
  3
ACAD_PLOTSTYLENAME
350
E
  3
ACAD_SCALELIST
350
47
  3
ACAD_SECTIONVIEWSTYLE
350
476
  3
ACAD_TABLESTYLE
350
69
  3
ACAD_VISUALSTYLE
350
2A
  3
ACDB_RECOMPOSE_DATA
350
472
  3
AcDbVariableDictionary
350
43E
  0
SUN
  5
6D
330
29
100
AcDbSun
 90
        1
290
     0
 63
     7
421
 16777215
 40
1.0
291
     1
 91
  2455826
 92
 54000000
292
     0
 70
     2
 71
   256
280
     1
  0
DICTIONARY
  5
475
102
{ACAD_REACTORS
330
C
102
}
330
C
100
AcDbDictionary
281
     1
  0
DICTIONARY
  5
D
102
{ACAD_REACTORS
330
C
102
}
330
C
100
AcDbDictionary
281
     1
  0
DICTIONARY
  5
1A
102
{ACAD_REACTORS
330
C
102
}
330
C
100
AcDbDictionary
281
     1
  3
Layout1
350
1E
  3
Layout2
350
26
  3
Model
350
22
  0
DICTIONARY
  5
43
102
{ACAD_REACTORS
330
C
102
}
330
C
100
AcDbDictionary
281
     1
  3
ByBlock
350
45
  3
ByLayer
350
44
  3
Global
350
46
  0
DICTIONARY
  5
6B
102
{ACAD_REACTORS
330
C
102
}
330
C
100
AcDbDictionary
281
     1
  3
Standard
350
6C
  0
DICTIONARY
  5
17
102
{ACAD_REACTORS
330
C
102
}
330
C
100
AcDbDictionary
281
     1
  3
Standard
350
18
  0
DICTIONARY
  5
19
102
{ACAD_REACTORS
330
C
102
}
330
C
100
AcDbDictionary
281
     1
  0
ACDBDICTIONARYWDFLT
  5
E
102
{ACAD_REACTORS
330
C
102
}
330
C
100
AcDbDictionary
281
     1
  3
Normal
350
F
100
AcDbDictionaryWithDefault
340
F
  0
DICTIONARY
  5
47
102
{ACAD_REACTORS
330
C
102
}
330
C
100
AcDbDictionary
281
     1
  3
A0
350
48
  3
A1
350
49
  3
A2
350
4A
  3
A3
350
4B
  3
A4
350
4C
  3
A5
350
4D
  3
A6
350
4E
  3
A7
350
4F
  3
A8
350
50
  3
A9
350
51
  3
B0
350
52
  3
B1
350
53
  3
B2
350
54
  3
B3
350
55
  3
B4
350
56
  3
B5
350
57
  3
B6
350
58
  3
B7
350
59
  3
B8
350
5A
  3
B9
350
5B
  3
C0
350
5C
  3
C1
350
5D
  3
C2
350
5E
  3
C3
350
5F
  3
C4
350
60
  3
C5
350
61
  3
C6
350
62
  3
C7
350
63
  3
C8
350
64
  3
C9
350
65
  3
D0
350
66
  3
D1
350
67
  3
D2
350
68
  0
DICTIONARY
  5
476
102
{ACAD_REACTORS
330
C
102
}
330
C
100
AcDbDictionary
281
     1
  0
DICTIONARY
  5
69
102
{ACAD_REACTORS
330
C
102
}
330
C
100
AcDbDictionary
281
     1
  3
Standard
350
6A
  0
DICTIONARY
  5
2A
102
{ACAD_REACTORS
330
C
102
}
330
C
100
AcDbDictionary
281
     1
  3
2dWireframe
350
2F
  3
Basic
350
32
  3
Brighten
350
36
  3
ColorChange
350
3A
  3
Conceptual
350
34
  3
Dim
350
35
  3
EdgeColorOff
350
3D
  3
Facepattern
350
39
  3
Flat
350
2B
  3
FlatWithEdges
350
2C
  3
Gouraud
350
2D
  3
GouraudWithEdges
350
2E
  3
Hidden
350
31
  3
JitterOff
350
3B
  3
Linepattern
350
38
  3
OverhangOff
350
3C
  3
Realistic
350
33
  3
Shaded
350
42
  3
Shaded with edges
350
41
  3
Shades of Gray
350
3E
  3
Sketchy
350
3F
  3
Thicken
350
37
  3
Wireframe
350
30
  3
X-Ray
350
40
  0
XRECORD
  5
472
102
{ACAD_REACTORS
330
C
102
}
330
C
100
AcDbXrecord
280
     1
 90
        1
330
6A
  0
DICTIONARY
  5
43E
102
{ACAD_REACTORS
330
C
102
}
330
C
100
AcDbDictionary
281
     1
  3
CANNOSCALE
350
43F
  3
CMLEADERSTYLE
350
474
  3
CTABLESTYLE
350
473
  0
LAYOUT
  5
1E
102
{ACAD_REACTORS
330
1A
102
}
330
1A
100
AcDbPlotSettings
  1

  2
none_device
  4

  6

 40
0.0
 41
0.0
 42
0.0
 43
0.0
 44
0.0
 45
0.0
 46
0.0
 47
0.0
 48
0.0
 49
0.0
140
0.0
141
0.0
142
1.0
143
1.0
 70
   688
 72
     0
 73
     0
 74
     5
  7

 75
    16
 76
     0
 77
     2
 78
   300
147
1.0
148
0.0
149
0.0
100
AcDbLayout
  1
Layout1
 70
     0
 71
     1
 10
0.0
 20
0.0
 11
12.0
 21
9.0
 12
0.0
 22
0.0
 32
0.0
 14
1.000000000000000E+20
 24
1.000000000000000E+20
 34
1.000000000000000E+20
 15
-1.000000000000000E+20
 25
-1.000000000000000E+20
 35
-1.000000000000000E+20
146
0.0
 13
0.0
 23
0.0
 33
0.0
 16
1.0
 26
0.0
 36
0.0
 17
0.0
 27
1.0
 37
0.0
 76
     0
330
1B
331
BC
  0
LAYOUT
  5
26
102
{ACAD_REACTORS
330
1A
102
}
330
1A
100
AcDbPlotSettings
  1

  2
none_device
  4

  6

 40
0.0
 41
0.0
 42
0.0
 43
0.0
 44
0.0
 45
0.0
 46
0.0
 47
0.0
 48
0.0
 49
0.0
140
0.0
141
0.0
142
1.0
143
1.0
 70
   688
 72
     0
 73
     0
 74
     5
  7

 75
    16
 76
     0
 77
     2
 78
   300
147
1.0
148
0.0
149
0.0
100
AcDbLayout
  1
Layout2
 70
     1
 71
     2
 10
0.0
 20
0.0
 11
0.0
 21
0.0
 12
0.0
 22
0.0
 32
0.0
 14
0.0
 24
0.0
 34
0.0
 15
0.0
 25
0.0
 35
0.0
146
0.0
 13
0.0
 23
0.0
 33
0.0
 16
1.0
 26
0.0
 36
0.0
 17
0.0
 27
1.0
 37
0.0
 76
     0
330
23
  0
LAYOUT
  5
22
102
{ACAD_REACTORS
330
1A
102
}
330
1A
100
AcDbPlotSettings
  1

  2
none_device
  4
Letter_(8.50_x_11.00_Inches)
  6

 40
6.35
 41
6.35
 42
6.35000508
 43
6.35000508
 44
215.9
 45
279.4
 46
0.0
 47
0.0
 48
0.0
 49
0.0
140
0.0
141
0.0
142
1.0
143
1.0
 70
  1712
 72
     0
 73
     0
 74
     0
  7

 75
     0
 76
     0
 77
     2
 78
   300
147
1.0
148
0.0
149
0.0
100
AcDbLayout
  1
Model
 70
     1
 71
     0
 10
-630.0
 20
-445.5
 11
630.0
 21
445.5
 12
0.0
 22
0.0
 32
0.0
 14
-1773.0
 24
-1216.152689944301
 34
0.0
 15
1773.0
 25
1216.152689944301
 35
0.0
146
0.0
 13
0.0
 23
0.0
 33
0.0
 16
1.0
 26
0.0
 36
0.0
 17
0.0
 27
1.0
 37
0.0
 76
     0
330
1F
331
29
  0
MATERIAL
  5
45
102
{ACAD_REACTORS
330
43
102
}
330
43
100
AcDbMaterial
  1
ByBlock
 72
     1
 94
      127
  0
MATERIAL
  5
44
102
{ACAD_REACTORS
330
43
102
}
330
43
100
AcDbMaterial
  1
ByLayer
 72
     1
 94
      127
  0
MATERIAL
  5
46
102
{ACAD_REACTORS
330
43
102
}
330
43
100
AcDbMaterial
  1
Global
 72
     1
 94
      127
  0
MLEADERSTYLE
  5
6C
102
{ACAD_REACTORS
330
6B
102
}
330
6B
100
AcDbMLeaderStyle
179
     2
170
     2
171
     1
172
     0
 90
        2
 40
0.0
 41
0.0
173
     1
 91
-1056964608
340
14
 92
       -2
290
     1
 42
0.09
291
     1
 43
0.36
  3
Standard
341
0
 44
0.18
300

342
11
174
     1
178
     6
175
     1
176
     0
 93
-1056964608
 45
0.18
292
     0
297
     0
 46
0.18
343
0
 94
-1056964608
 47
1.0
 49
1.0
140
1.0
293
     1
141
0.0
294
     1
177
     0
142
1.0
295
     0
296
     0
143
0.125
271
     0
272
     9
273
     9
  0
MLINESTYLE
  5
18
102
{ACAD_REACTORS
330
17
102
}
330
17
100
AcDbMlineStyle
  2
Standard
 70
     0
  3

 62
   256
 51
90.0
 52
90.0
 71
     2
 49
0.5
 62
   256
  6
BYLAYER
 49
-0.5
 62
   256
  6
BYLAYER
  0
ACDBPLACEHOLDER
  5
F
102
{ACAD_REACTORS
330
E
102
}
330
E
  0
SCALE
  5
48
102
{ACAD_REACTORS
330
47
102
}
330
47
100
AcDbScale
 70
     0
300
1:1
140
1.0
141
1.0
290
     1
  0
SCALE
  5
49
102
{ACAD_REACTORS
330
47
102
}
330
47
100
AcDbScale
 70
     0
300
1:2
140
1.0
141
2.0
290
     0
  0
SCALE
  5
4A
102
{ACAD_REACTORS
330
47
102
}
330
47
100
AcDbScale
 70
     0
300
1:4
140
1.0
141
4.0
290
     0
  0
SCALE
  5
4B
102
{ACAD_REACTORS
330
47
102
}
330
47
100
AcDbScale
 70
     0
300
1:5
140
1.0
141
5.0
290
     0
  0
SCALE
  5
4C
102
{ACAD_REACTORS
330
47
102
}
330
47
100
AcDbScale
 70
     0
300
1:8
140
1.0
141
8.0
290
     0
  0
SCALE
  5
4D
102
{ACAD_REACTORS
330
47
102
}
330
47
100
AcDbScale
 70
     0
300
1:10
140
1.0
141
10.0
290
     0
  0
SCALE
  5
4E
102
{ACAD_REACTORS
330
47
102
}
330
47
100
AcDbScale
 70
     0
300
1:16
140
1.0
141
16.0
290
     0
  0
SCALE
  5
4F
102
{ACAD_REACTORS
330
47
102
}
330
47
100
AcDbScale
 70
     0
300
1:20
140
1.0
141
20.0
290
     0
  0
SCALE
  5
50
102
{ACAD_REACTORS
330
47
102
}
330
47
100
AcDbScale
 70
     0
300
1:30
140
1.0
141
30.0
290
     0
  0
SCALE
  5
51
102
{ACAD_REACTORS
330
47
102
}
330
47
100
AcDbScale
 70
     0
300
1:40
140
1.0
141
40.0
290
     0
  0
SCALE
  5
52
102
{ACAD_REACTORS
330
47
102
}
330
47
100
AcDbScale
 70
     0
300
1:50
140
1.0
141
50.0
290
     0
  0
SCALE
  5
53
102
{ACAD_REACTORS
330
47
102
}
330
47
100
AcDbScale
 70
     0
300
1:100
140
1.0
141
100.0
290
     0
  0
SCALE
  5
54
102
{ACAD_REACTORS
330
47
102
}
330
47
100
AcDbScale
 70
     0
300
2:1
140
2.0
141
1.0
290
     0
  0
SCALE
  5
55
102
{ACAD_REACTORS
330
47
102
}
330
47
100
AcDbScale
 70
     0
300
4:1
140
4.0
141
1.0
290
     0
  0
SCALE
  5
56
102
{ACAD_REACTORS
330
47
102
}
330
47
100
AcDbScale
 70
     0
300
8:1
140
8.0
141
1.0
290
     0
  0
SCALE
  5
57
102
{ACAD_REACTORS
330
47
102
}
330
47
100
AcDbScale
 70
     0
300
10:1
140
10.0
141
1.0
290
     0
  0
SCALE
  5
58
102
{ACAD_REACTORS
330
47
102
}
330
47
100
AcDbScale
 70
     0
300
100:1
140
100.0
141
1.0
290
     0
  0
SCALE
  5
59
102
{ACAD_REACTORS
330
47
102
}
330
47
100
AcDbScale
 70
     0
300
1/128" = 1'-0"
140
0.0078125
141
12.0
290
     0
  0
SCALE
  5
5A
102
{ACAD_REACTORS
330
47
102
}
330
47
100
AcDbScale
 70
     0
300
1/64" = 1'-0"
140
0.015625
141
12.0
290
     0
  0
SCALE
  5
5B
102
{ACAD_REACTORS
330
47
102
}
330
47
100
AcDbScale
 70
     0
300
1/32" = 1'-0"
140
0.03125
141
12.0
290
     0
  0
SCALE
  5
5C
102
{ACAD_REACTORS
330
47
102
}
330
47
100
AcDbScale
 70
     0
300
1/16" = 1'-0"
140
0.0625
141
12.0
290
     0
  0
SCALE
  5
5D
102
{ACAD_REACTORS
330
47
102
}
330
47
100
AcDbScale
 70
     0
300
3/32" = 1'-0"
140
0.09375
141
12.0
290
     0
  0
SCALE
  5
5E
102
{ACAD_REACTORS
330
47
102
}
330
47
100
AcDbScale
 70
     0
300
1/8" = 1'-0"
140
0.125
141
12.0
290
     0
  0
SCALE
  5
5F
102
{ACAD_REACTORS
330
47
102
}
330
47
100
AcDbScale
 70
     0
300
3/16" = 1'-0"
140
0.1875
141
12.0
290
     0
  0
SCALE
  5
60
102
{ACAD_REACTORS
330
47
102
}
330
47
100
AcDbScale
 70
     0
300
1/4" = 1'-0"
140
0.25
141
12.0
290
     0
  0
SCALE
  5
61
102
{ACAD_REACTORS
330
47
102
}
330
47
100
AcDbScale
 70
     0
300
3/8" = 1'-0"
140
0.375
141
12.0
290
     0
  0
SCALE
  5
62
102
{ACAD_REACTORS
330
47
102
}
330
47
100
AcDbScale
 70
     0
300
1/2" = 1'-0"
140
0.5
141
12.0
290
     0
  0
SCALE
  5
63
102
{ACAD_REACTORS
330
47
102
}
330
47
100
AcDbScale
 70
     0
300
3/4" = 1'-0"
140
0.75
141
12.0
290
     0
  0
SCALE
  5
64
102
{ACAD_REACTORS
330
47
102
}
330
47
100
AcDbScale
 70
     0
300
1" = 1'-0"
140
1.0
141
12.0
290
     0
  0
SCALE
  5
65
102
{ACAD_REACTORS
330
47
102
}
330
47
100
AcDbScale
 70
     0
300
1-1/2" = 1'-0"
140
1.5
141
12.0
290
     0
  0
SCALE
  5
66
102
{ACAD_REACTORS
330
47
102
}
330
47
100
AcDbScale
 70
     0
300
3" = 1'-0"
140
3.0
141
12.0
290
     0
  0
SCALE
  5
67
102
{ACAD_REACTORS
330
47
102
}
330
47
100
AcDbScale
 70
     0
300
6" = 1'-0"
140
6.0
141
12.0
290
     0
  0
SCALE
  5
68
102
{ACAD_REACTORS
330
47
102
}
330
47
100
AcDbScale
 70
     0
300
1'-0" = 1'-0"
140
12.0
141
12.0
290
     0
  0
TABLESTYLE
  5
6A
102
{ACAD_REACTORS
330
69
102
}
102
{ACAD_XDICTIONARY
360
470
102
}
330
69
100
AcDbTableStyle
  3
Standard
 70
     0
 71
     0
 40
0.06
 41
0.06
280
     0
281
     0
  7
Standard
140
0.18
170
     2
 62
     0
 63
   257
283
     0
 90
        4
 91
        0
  1

274
    -2
284
     1
 64
     0
275
    -2
285
     1
 65
     0
276
    -2
286
     1
 66
     0
277
    -2
287
     1
 67
     0
278
    -2
288
     1
 68
     0
279
    -2
289
     1
 69
     0
  7
Standard
140
0.25
170
     5
 62
     0
 63
   257
283
     0
 90
        4
 91
        0
  1

274
    -2
284
     1
 64
     0
275
    -2
285
     1
 65
     0
276
    -2
286
     1
 66
     0
277
    -2
287
     1
 67
     0
278
    -2
288
     1
 68
     0
279
    -2
289
     1
 69
     0
  7
Standard
140
0.18
170
     5
 62
     0
 63
   257
283
     0
 90
        4
 91
        0
  1

274
    -2
284
     1
 64
     0
275
    -2
285
     1
 65
     0
276
    -2
286
     1
 66
     0
277
    -2
287
     1
 67
     0
278
    -2
288
     1
 68
     0
279
    -2
289
     1
 69
     0
  0
VISUALSTYLE
  5
2F
102
{ACAD_REACTORS
330
2A
102
}
102
{ACAD_XDICTIONARY
360
448
102
}
330
2A
100
AcDbVisualStyle
  2
2dWireframe
 70
     4
177
     2
291
     0
 71
     0
176
     1
 72
     2
176
     1
 73
     0
176
     1
 90
        0
176
     1
 40
0.6
176
     1
 41
30.0
176
     1
 62
     5
 63
     7
421
 16777215
176
     1
 74
     1
176
     1
 91
        4
176
     1
 64
     7
176
     1
 65
   257
176
     1
 75
     1
176
     1
175
     1
176
     1
 42
1.0
176
     1
 92
        0
176
     1
 66
   257
176
     1
 43
1.0
176
     1
 76
     1
176
     1
 77
     6
176
     1
 78
     2
176
     1
 67
     7
176
     1
 79
     5
176
     1
170
     0
176
     1
171
     0
176
     1
290
     0
176
     1
 93
        1
176
     1
 44
0.0
176
     1
173
     0
176
     1
  0
VISUALSTYLE
  5
32
102
{ACAD_REACTORS
330
2A
102
}
102
{ACAD_XDICTIONARY
360
44E
102
}
330
2A
100
AcDbVisualStyle
  2
Basic
 70
     7
177
     2
291
     1
 71
     1
176
     1
 72
     0
176
     1
 73
     1
176
     1
 90
        0
176
     1
 40
0.6
176
     1
 41
30.0
176
     1
 62
     5
 63
     7
421
 16777215
176
     1
 74
     0
176
     1
 91
        4
176
     1
 64
     7
176
     1
 65
   257
176
     1
 75
     1
176
     1
175
     1
176
     1
 42
1.0
176
     1
 92
        8
176
     1
 66
     7
176
     1
 43
1.0
176
     1
 76
     1
176
     1
 77
     6
176
     1
 78
     2
176
     1
 67
     7
176
     1
 79
     5
176
     1
170
     0
176
     1
171
     0
176
     1
290
     0
176
     1
 93
        1
176
     1
 44
0.0
176
     1
173
     0
176
     1
  0
VISUALSTYLE
  5
36
102
{ACAD_REACTORS
330
2A
102
}
102
{ACAD_XDICTIONARY
360
456
102
}
330
2A
100
AcDbVisualStyle
  2
Brighten
 70
    12
177
     2
291
     1
 71
     2
176
     1
 72
     2
176
     1
 73
     0
176
     1
 90
        0
176
     1
 40
0.6
176
     1
 41
30.0
176
     1
 62
     5
 63
     7
421
 16777215
176
     1
 74
     1
176
     1
 91
        4
176
     1
 64
     7
176
     1
 65
   257
176
     1
 75
     1
176
     1
175
     1
176
     1
 42
1.0
176
     1
 92
        8
176
     1
 66
     7
176
     1
 43
1.0
176
     1
 76
     1
176
     1
 77
     6
176
     1
 78
     2
176
     1
 67
     7
176
     1
 79
     5
176
     1
170
     0
176
     1
171
     0
176
     1
290
     0
176
     1
 93
        1
176
     1
 44
50.0
176
     1
173
     0
176
     1
  0
VISUALSTYLE
  5
3A
102
{ACAD_REACTORS
330
2A
102
}
102
{ACAD_XDICTIONARY
360
45E
102
}
330
2A
100
AcDbVisualStyle
  2
ColorChange
 70
    16
177
     2
291
     1
 71
     2
176
     1
 72
     2
176
     1
 73
     3
176
     1
 90
        0
176
     1
 40
0.6
176
     1
 41
30.0
176
     1
 62
     5
 63
     8
421
  8421504
176
     1
 74
     1
176
     1
 91
        4
176
     1
 64
     7
176
     1
 65
   257
176
     1
 75
     1
176
     1
175
     1
176
     1
 42
1.0
176
     1
 92
        8
176
     1
 66
     8
424
  8421504
176
     1
 43
1.0
176
     1
 76
     1
176
     1
 77
     6
176
     1
 78
     2
176
     1
 67
     7
176
     1
 79
     5
176
     1
170
     0
176
     1
171
     0
176
     1
290
     0
176
     1
 93
        1
176
     1
 44
0.0
176
     1
173
     0
176
     1
  0
VISUALSTYLE
  5
34
102
{ACAD_REACTORS
330
2A
102
}
102
{ACAD_XDICTIONARY
360
452
102
}
330
2A
100
AcDbVisualStyle
  2
Conceptual
 70
     9
177
     2
291
     0
 71
     3
176
     1
 72
     2
176
     1
 73
     0
176
     1
 90
        0
176
     1
 40
0.6
176
     1
 41
30.0
176
     1
 62
     5
 63
     7
421
 16777215
176
     1
 74
     2
176
     1
 91
        2
176
     1
 64
     7
176
     1
 65
   257
176
     1
 75
     1
176
     1
175
     1
176
     1
 42
179.0
176
     1
 92
        8
176
     1
 66
     7
176
     1
 43
1.0
176
     1
 76
     1
176
     1
 77
     6
176
     1
 78
     2
176
     1
 67
     7
176
     1
 79
     3
176
     1
170
     0
176
     1
171
     0
176
     1
290
     0
176
     1
 93
        1
176
     1
 44
0.0
176
     1
173
     0
176
     1
  0
VISUALSTYLE
  5
35
102
{ACAD_REACTORS
330
2A
102
}
102
{ACAD_XDICTIONARY
360
454
102
}
330
2A
100
AcDbVisualStyle
  2
Dim
 70
    11
177
     2
291
     1
 71
     2
176
     1
 72
     2
176
     1
 73
     0
176
     1
 90
        0
176
     1
 40
0.6
176
     1
 41
30.0
176
     1
 62
     5
 63
     7
421
 16777215
176
     1
 74
     1
176
     1
 91
        4
176
     1
 64
     7
176
     1
 65
   257
176
     1
 75
     1
176
     1
175
     1
176
     1
 42
1.0
176
     1
 92
        8
176
     1
 66
     7
176
     1
 43
1.0
176
     1
 76
     1
176
     1
 77
     6
176
     1
 78
     2
176
     1
 67
     7
176
     1
 79
     5
176
     1
170
     0
176
     1
171
     0
176
     1
290
     0
176
     1
 93
        1
176
     1
 44
-50.0
176
     1
173
     0
176
     1
  0
VISUALSTYLE
  5
3D
102
{ACAD_REACTORS
330
2A
102
}
102
{ACAD_XDICTIONARY
360
464
102
}
330
2A
100
AcDbVisualStyle
  2
EdgeColorOff
 70
    22
177
     2
291
     1
 71
     2
176
     0
 72
     2
176
     0
 73
     0
176
     0
 90
        0
176
     0
 40
0.6
176
     0
 41
30.0
176
     0
 62
     5
 63
     7
421
 16777215
176
     0
 74
     1
176
     0
 91
        4
176
     0
 64
     7
176
     0
 65
   257
176
     0
 75
     1
176
     0
175
     1
176
     0
 42
1.0
176
     0
 92
        8
176
     2
 66
     7
176
     0
 43
1.0
176
     0
 76
     1
176
     0
 77
     6
176
     0
 78
     2
176
     0
 67
     7
176
     0
 79
     5
176
     0
170
     0
176
     0
171
     0
176
     0
290
     0
176
     0
 93
        1
176
     0
 44
0.0
176
     0
173
     0
176
     0
  0
VISUALSTYLE
  5
39
102
{ACAD_REACTORS
330
2A
102
}
102
{ACAD_XDICTIONARY
360
45C
102
}
330
2A
100
AcDbVisualStyle
  2
Facepattern
 70
    15
177
     2
291
     1
 71
     2
176
     1
 72
     2
176
     1
 73
     0
176
     1
 90
        0
176
     1
 40
0.6
176
     1
 41
30.0
176
     1
 62
     5
 63
     7
421
 16777215
176
     1
 74
     1
176
     1
 91
        4
176
     1
 64
     7
176
     1
 65
   257
176
     1
 75
     1
176
     1
175
     1
176
     1
 42
1.0
176
     1
 92
        8
176
     1
 66
     7
176
     1
 43
1.0
176
     1
 76
     1
176
     1
 77
     6
176
     1
 78
     2
176
     1
 67
     7
176
     1
 79
     5
176
     1
170
     0
176
     1
171
     0
176
     1
290
     0
176
     1
 93
        1
176
     1
 44
0.0
176
     1
173
     0
176
     1
  0
VISUALSTYLE
  5
2B
102
{ACAD_REACTORS
330
2A
102
}
102
{ACAD_XDICTIONARY
360
440
102
}
330
2A
100
AcDbVisualStyle
  2
Flat
 70
     0
177
     2
291
     1
 71
     2
176
     1
 72
     1
176
     1
 73
     1
176
     1
 90
        2
176
     1
 40
0.6
176
     1
 41
30.0
176
     1
 62
     5
 63
     7
421
 16777215
176
     1
 74
     0
176
     1
 91
        0
176
     1
 64
     7
176
     1
 65
   257
176
     1
 75
     1
176
     1
175
     1
176
     1
 42
1.0
176
     1
 92
        8
176
     1
 66
     7
176
     1
 43
1.0
176
     1
 76
     1
176
     1
 77
     6
176
     1
 78
     2
176
     1
 67
     7
176
     1
 79
     5
176
     1
170
     0
176
     1
171
     0
176
     1
290
     0
176
     1
 93
       13
176
     1
 44
0.0
176
     1
173
     0
176
     1
  0
VISUALSTYLE
  5
2C
102
{ACAD_REACTORS
330
2A
102
}
102
{ACAD_XDICTIONARY
360
442
102
}
330
2A
100
AcDbVisualStyle
  2
FlatWithEdges
 70
     1
177
     2
291
     1
 71
     2
176
     1
 72
     1
176
     1
 73
     1
176
     1
 90
        2
176
     1
 40
0.6
176
     1
 41
30.0
176
     1
 62
     5
 63
     7
421
 16777215
176
     1
 74
     1
176
     1
 91
        0
176
     1
 64
     7
176
     1
 65
   257
176
     1
 75
     1
176
     1
175
     1
176
     1
 42
1.0
176
     1
 92
        0
176
     1
 66
   257
176
     1
 43
1.0
176
     1
 76
     1
176
     1
 77
     6
176
     1
 78
     2
176
     1
 67
     7
176
     1
 79
     5
176
     1
170
     0
176
     1
171
     0
176
     1
290
     0
176
     1
 93
       13
176
     1
 44
0.0
176
     1
173
     0
176
     1
  0
VISUALSTYLE
  5
2D
102
{ACAD_REACTORS
330
2A
102
}
102
{ACAD_XDICTIONARY
360
444
102
}
330
2A
100
AcDbVisualStyle
  2
Gouraud
 70
     2
177
     2
291
     1
 71
     2
176
     1
 72
     2
176
     1
 73
     1
176
     1
 90
        2
176
     1
 40
0.6
176
     1
 41
30.0
176
     1
 62
     5
 63
     7
421
 16777215
176
     1
 74
     0
176
     1
 91
        0
176
     1
 64
     7
176
     1
 65
   257
176
     1
 75
     1
176
     1
175
     1
176
     1
 42
1.0
176
     1
 92
        0
176
     1
 66
     7
176
     1
 43
1.0
176
     1
 76
     1
176
     1
 77
     6
176
     1
 78
     2
176
     1
 67
     7
176
     1
 79
     5
176
     1
170
     0
176
     1
171
     0
176
     1
290
     0
176
     1
 93
       13
176
     1
 44
0.0
176
     1
173
     0
176
     1
  0
VISUALSTYLE
  5
2E
102
{ACAD_REACTORS
330
2A
102
}
102
{ACAD_XDICTIONARY
360
446
102
}
330
2A
100
AcDbVisualStyle
  2
GouraudWithEdges
 70
     3
177
     2
291
     1
 71
     2
176
     1
 72
     2
176
     1
 73
     1
176
     1
 90
        2
176
     1
 40
0.6
176
     1
 41
30.0
176
     1
 62
     5
 63
     7
421
 16777215
176
     1
 74
     1
176
     1
 91
        0
176
     1
 64
     7
176
     1
 65
   257
176
     1
 75
     1
176
     1
175
     1
176
     1
 42
1.0
176
     1
 92
        0
176
     1
 66
   257
176
     1
 43
1.0
176
     1
 76
     1
176
     1
 77
     6
176
     1
 78
     2
176
     1
 67
     7
176
     1
 79
     5
176
     1
170
     0
176
     1
171
     0
176
     1
290
     0
176
     1
 93
       13
176
     1
 44
0.0
176
     1
173
     0
176
     1
  0
VISUALSTYLE
  5
31
102
{ACAD_REACTORS
330
2A
102
}
102
{ACAD_XDICTIONARY
360
44C
102
}
330
2A
100
AcDbVisualStyle
  2
Hidden
 70
     6
177
     2
291
     0
 71
     1
176
     1
 72
     2
176
     1
 73
     2
176
     1
 90
        0
176
     1
 40
0.6
176
     1
 41
30.0
176
     1
 62
     5
 63
     7
421
 16777215
176
     1
 74
     2
176
     1
 91
        2
176
     1
 64
     7
176
     1
 65
   257
176
     1
 75
     2
176
     1
175
     1
176
     1
 42
40.0
176
     1
 92
        0
176
     1
 66
   257
176
     1
 43
1.0
176
     1
 76
     1
176
     1
 77
     6
176
     1
 78
     2
176
     1
 67
     7
176
     1
 79
     3
176
     1
170
     0
176
     1
171
     0
176
     1
290
     0
176
     1
 93
        1
176
     1
 44
0.0
176
     1
173
     0
176
     1
  0
VISUALSTYLE
  5
3B
102
{ACAD_REACTORS
330
2A
102
}
102
{ACAD_XDICTIONARY
360
460
102
}
330
2A
100
AcDbVisualStyle
  2
JitterOff
 70
    20
177
     2
291
     1
 71
     2
176
     0
 72
     2
176
     0
 73
     0
176
     0
 90
        0
176
     0
 40
0.6
176
     0
 41
30.0
176
     0
 62
     5
 63
     7
421
 16777215
176
     0
 74
     1
176
     0
 91
        4
176
     0
 64
     7
176
     0
 65
   257
176
     0
 75
     1
176
     0
175
     1
176
     0
 42
1.0
176
     0
 92
       10
176
     2
 66
     7
176
     0
 43
1.0
176
     0
 76
     1
176
     0
 77
     6
176
     0
 78
     2
176
     0
 67
     7
176
     0
 79
     5
176
     0
170
     0
176
     0
171
     0
176
     0
290
     0
176
     0
 93
        1
176
     0
 44
0.0
176
     0
173
     0
176
     0
  0
VISUALSTYLE
  5
38
102
{ACAD_REACTORS
330
2A
102
}
102
{ACAD_XDICTIONARY
360
45A
102
}
330
2A
100
AcDbVisualStyle
  2
Linepattern
 70
    14
177
     2
291
     1
 71
     2
176
     1
 72
     2
176
     1
 73
     0
176
     1
 90
        0
176
     1
 40
0.6
176
     1
 41
30.0
176
     1
 62
     5
 63
     7
421
 16777215
176
     1
 74
     1
176
     1
 91
        4
176
     1
 64
     7
176
     1
 65
   257
176
     1
 75
     7
176
     1
175
     7
176
     1
 42
1.0
176
     1
 92
        8
176
     1
 66
     7
176
     1
 43
1.0
176
     1
 76
     1
176
     1
 77
     6
176
     1
 78
     2
176
     1
 67
     7
176
     1
 79
     5
176
     1
170
     0
176
     1
171
     0
176
     1
290
     0
176
     1
 93
        1
176
     1
 44
0.0
176
     1
173
     0
176
     1
  0
VISUALSTYLE
  5
3C
102
{ACAD_REACTORS
330
2A
102
}
102
{ACAD_XDICTIONARY
360
462
102
}
330
2A
100
AcDbVisualStyle
  2
OverhangOff
 70
    21
177
     2
291
     1
 71
     2
176
     0
 72
     2
176
     0
 73
     0
176
     0
 90
        0
176
     0
 40
0.6
176
     0
 41
30.0
176
     0
 62
     5
 63
     7
421
 16777215
176
     0
 74
     1
176
     0
 91
        4
176
     0
 64
     7
176
     0
 65
   257
176
     0
 75
     1
176
     0
175
     1
176
     0
 42
1.0
176
     0
 92
        9
176
     2
 66
     7
176
     0
 43
1.0
176
     0
 76
     1
176
     0
 77
     6
176
     0
 78
     2
176
     0
 67
     7
176
     0
 79
     5
176
     0
170
     0
176
     0
171
     0
176
     0
290
     0
176
     0
 93
        1
176
     0
 44
0.0
176
     0
173
     0
176
     0
  0
VISUALSTYLE
  5
33
102
{ACAD_REACTORS
330
2A
102
}
102
{ACAD_XDICTIONARY
360
450
102
}
330
2A
100
AcDbVisualStyle
  2
Realistic
 70
     8
177
     2
291
     0
 71
     2
176
     1
 72
     3
176
     1
 73
     0
176
     1
 90
        2
176
     1
 40
0.6
176
     1
 41
30.0
176
     1
 62
     5
 63
     7
421
 16777215
176
     1
 74
     0
176
     1
 91
        0
176
     1
 64
     7
176
     1
 65
   257
176
     1
 75
     1
176
     1
175
     1
176
     1
 42
1.0
176
     1
 92
        8
176
     1
 66
   257
176
     1
 43
1.0
176
     1
 76
     1
176
     1
 77
     6
176
     1
 78
     2
176
     1
 67
     7
176
     1
 79
     3
176
     1
170
     0
176
     1
171
     0
176
     1
290
     0
176
     1
 93
       13
176
     1
 44
0.0
176
     1
173
     0
176
     1
  0
VISUALSTYLE
  5
42
102
{ACAD_REACTORS
330
2A
102
}
102
{ACAD_XDICTIONARY
360
46E
102
}
330
2A
100
AcDbVisualStyle
  2
Shaded
 70
    27
177
     2
291
     0
 71
     2
176
     1
 72
     2
176
     1
 73
     1
176
     1
 90
        2
176
     1
 40
0.6
176
     1
 41
30.0
176
     1
 62
     5
 63
     7
421
 16777215
176
     1
 74
     0
176
     1
 91
        4
176
     1
 64
     7
176
     1
 65
   257
176
     1
 75
     1
176
     1
175
     1
176
     1
 42
1.0
176
     1
 92
        8
176
     1
 66
   257
176
     1
 43
1.0
176
     1
 76
     1
176
     1
 77
     6
176
     1
 78
     2
176
     1
 67
     8
425
  7895160
176
     1
 79
     3
176
     1
170
     0
176
     1
171
     0
176
     1
290
     0
176
     1
 93
        5
176
     1
 44
0.0
176
     1
173
     0
176
     1
  0
VISUALSTYLE
  5
41
102
{ACAD_REACTORS
330
2A
102
}
102
{ACAD_XDICTIONARY
360
46C
102
}
330
2A
100
AcDbVisualStyle
  2
Shaded with edges
 70
    26
177
     2
291
     0
 71
     2
176
     1
 72
     2
176
     1
 73
     1
176
     1
 90
        2
176
     1
 40
0.6
176
     1
 41
30.0
176
     1
 62
     5
 63
     7
421
 16777215
176
     1
 74
     1
176
     1
 91
       10
176
     1
 64
     7
176
     1
 65
   257
176
     1
 75
     2
176
     1
175
     1
176
     1
 42
1.0
176
     1
 92
        8
176
     1
 66
   257
176
     1
 43
1.0
176
     1
 76
     1
176
     1
 77
     6
176
     1
 78
     2
176
     1
 67
     7
176
     1
 79
     3
176
     1
170
     0
176
     1
171
     0
176
     1
290
     0
176
     1
 93
        5
176
     1
 44
0.0
176
     1
173
     0
176
     1
  0
VISUALSTYLE
  5
3E
102
{ACAD_REACTORS
330
2A
102
}
102
{ACAD_XDICTIONARY
360
466
102
}
330
2A
100
AcDbVisualStyle
  2
Shades of Gray
 70
    23
177
     2
291
     0
 71
     2
176
     1
 72
     2
176
     1
 73
     3
176
     1
 90
        0
176
     1
 40
0.6
176
     1
 41
30.0
176
     1
 62
     5
 63
     7
421
 16777215
176
     1
 74
     2
176
     1
 91
        2
176
     1
 64
     7
176
     1
 65
     7
176
     1
 75
     1
176
     1
175
     1
176
     1
 42
40.0
176
     1
 92
        8
176
     1
 66
     7
176
     1
 43
1.0
176
     1
 76
     1
176
     1
 77
     6
176
     1
 78
     2
176
     1
 67
     7
176
     1
 79
     3
176
     1
170
     0
176
     1
171
     0
176
     1
290
     0
176
     1
 93
        1
176
     1
 44
0.0
176
     1
173
     0
176
     1
  0
VISUALSTYLE
  5
3F
102
{ACAD_REACTORS
330
2A
102
}
102
{ACAD_XDICTIONARY
360
468
102
}
330
2A
100
AcDbVisualStyle
  2
Sketchy
 70
    24
177
     2
291
     0
 71
     1
176
     1
 72
     2
176
     1
 73
     2
176
     1
 90
        0
176
     1
 40
0.6
176
     1
 41
30.0
176
     1
 62
     5
 63
     7
421
 16777215
176
     1
 74
     2
176
     1
 91
        2
176
     1
 64
     7
176
     1
 65
     7
176
     1
 75
     1
176
     1
175
     1
176
     1
 42
40.0
176
     1
 92
       11
176
     1
 66
     7
176
     1
 43
1.0
176
     1
 76
     1
176
     1
 77
     6
176
     1
 78
     2
176
     1
 67
     7
176
     1
 79
     6
176
     1
170
     0
176
     1
171
     0
176
     1
290
     0
176
     1
 93
        1
176
     1
 44
0.0
176
     1
173
     0
176
     1
  0
VISUALSTYLE
  5
37
102
{ACAD_REACTORS
330
2A
102
}
102
{ACAD_XDICTIONARY
360
458
102
}
330
2A
100
AcDbVisualStyle
  2
Thicken
 70
    13
177
     2
291
     1
 71
     2
176
     1
 72
     2
176
     1
 73
     0
176
     1
 90
        0
176
     1
 40
0.6
176
     1
 41
30.0
176
     1
 62
     5
 63
     7
421
 16777215
176
     1
 74
     1
176
     1
 91
        4
176
     1
 64
     7
176
     1
 65
   257
176
     1
 75
     1
176
     1
175
     1
176
     1
 42
1.0
176
     1
 92
       12
176
     1
 66
     7
176
     1
 43
1.0
176
     1
 76
     1
176
     1
 77
     6
176
     1
 78
     2
176
     1
 67
     7
176
     1
 79
     5
176
     1
170
     0
176
     1
171
     0
176
     1
290
     0
176
     1
 93
        1
176
     1
 44
0.0
176
     1
173
     0
176
     1
  0
VISUALSTYLE
  5
30
102
{ACAD_REACTORS
330
2A
102
}
102
{ACAD_XDICTIONARY
360
44A
102
}
330
2A
100
AcDbVisualStyle
  2
Wireframe
 70
     5
177
     2
291
     0
 71
     0
176
     1
 72
     2
176
     1
 73
     0
176
     1
 90
        0
176
     1
 40
0.6
176
     1
 41
30.0
176
     1
 62
     5
 63
     7
421
 16777215
176
     1
 74
     1
176
     1
 91
        4
176
     1
 64
     7
176
     1
 65
   257
176
     1
 75
     1
176
     1
175
     1
176
     1
 42
1.0
176
     1
 92
        0
176
     1
 66
   257
176
     1
 43
1.0
176
     1
 76
     1
176
     1
 77
     6
176
     1
 78
     2
176
     1
 67
     7
176
     1
 79
     3
176
     1
170
     0
176
     1
171
     0
176
     1
290
     0
176
     1
 93
        1
176
     1
 44
0.0
176
     1
173
     0
176
     1
  0
VISUALSTYLE
  5
40
102
{ACAD_REACTORS
330
2A
102
}
102
{ACAD_XDICTIONARY
360
46A
102
}
330
2A
100
AcDbVisualStyle
  2
X-Ray
 70
    25
177
     2
291
     0
 71
     2
176
     1
 72
     2
176
     1
 73
     1
176
     1
 90
        1
176
     1
 40
0.5
176
     1
 41
30.0
176
     1
 62
     5
 63
     7
421
 16777215
176
     1
 74
     1
176
     1
 91
        0
176
     1
 64
     7
176
     1
 65
   257
176
     1
 75
     1
176
     1
175
     1
176
     1
 42
1.0
176
     1
 92
        8
176
     1
 66
     7
176
     1
 43
1.0
176
     1
 76
     1
176
     1
 77
     6
176
     1
 78
     2
176
     1
 67
     7
176
     1
 79
     3
176
     1
170
     0
176
     1
171
     0
176
     1
290
     0
176
     1
 93
       13
176
     1
 44
0.0
176
     1
173
     0
176
     1
  0
DICTIONARYVAR
  5
43F
102
{ACAD_REACTORS
330
43E
102
}
330
43E
100
DictionaryVariables
280
     0
  1
1:1
  0
DICTIONARYVAR
  5
474
102
{ACAD_REACTORS
330
43E
102
}
330
43E
100
DictionaryVariables
280
     0
  1
Standard
  0
DICTIONARYVAR
  5
473
102
{ACAD_REACTORS
330
43E
102
}
330
43E
100
DictionaryVariables
280
     0
  1
Standard
  0
DICTIONARY
  5
470
330
6A
100
AcDbDictionary
280
     1
281
     1
  3
ACAD_ROUNDTRIP_2008_TABLESTYLE_CELLSTYLEMAP
360
471
  0
DICTIONARY
  5
448
330
2F
100
AcDbDictionary
280
     1
281
     1
  3
ACAD_XREC_ROUNDTRIP
360
449
  0
DICTIONARY
  5
44E
330
32
100
AcDbDictionary
280
     1
281
     1
  3
ACAD_XREC_ROUNDTRIP
360
44F
  0
DICTIONARY
  5
456
330
36
100
AcDbDictionary
280
     1
281
     1
  3
ACAD_XREC_ROUNDTRIP
360
457
  0
DICTIONARY
  5
45E
330
3A
100
AcDbDictionary
280
     1
281
     1
  3
ACAD_XREC_ROUNDTRIP
360
45F
  0
DICTIONARY
  5
452
330
34
100
AcDbDictionary
280
     1
281
     1
  3
ACAD_XREC_ROUNDTRIP
360
453
  0
DICTIONARY
  5
454
330
35
100
AcDbDictionary
280
     1
281
     1
  3
ACAD_XREC_ROUNDTRIP
360
455
  0
DICTIONARY
  5
464
330
3D
100
AcDbDictionary
280
     1
281
     1
  3
ACAD_XREC_ROUNDTRIP
360
465
  0
DICTIONARY
  5
45C
330
39
100
AcDbDictionary
280
     1
281
     1
  3
ACAD_XREC_ROUNDTRIP
360
45D
  0
DICTIONARY
  5
440
330
2B
100
AcDbDictionary
280
     1
281
     1
  3
ACAD_XREC_ROUNDTRIP
360
441
  0
DICTIONARY
  5
442
330
2C
100
AcDbDictionary
280
     1
281
     1
  3
ACAD_XREC_ROUNDTRIP
360
443
  0
DICTIONARY
  5
444
330
2D
100
AcDbDictionary
280
     1
281
     1
  3
ACAD_XREC_ROUNDTRIP
360
445
  0
DICTIONARY
  5
446
330
2E
100
AcDbDictionary
280
     1
281
     1
  3
ACAD_XREC_ROUNDTRIP
360
447
  0
DICTIONARY
  5
44C
330
31
100
AcDbDictionary
280
     1
281
     1
  3
ACAD_XREC_ROUNDTRIP
360
44D
  0
DICTIONARY
  5
460
330
3B
100
AcDbDictionary
280
     1
281
     1
  3
ACAD_XREC_ROUNDTRIP
360
461
  0
DICTIONARY
  5
45A
330
38
100
AcDbDictionary
280
     1
281
     1
  3
ACAD_XREC_ROUNDTRIP
360
45B
  0
DICTIONARY
  5
462
330
3C
100
AcDbDictionary
280
     1
281
     1
  3
ACAD_XREC_ROUNDTRIP
360
463
  0
DICTIONARY
  5
450
330
33
100
AcDbDictionary
280
     1
281
     1
  3
ACAD_XREC_ROUNDTRIP
360
451
  0
DICTIONARY
  5
46E
330
42
100
AcDbDictionary
280
     1
281
     1
  3
ACAD_XREC_ROUNDTRIP
360
46F
  0
DICTIONARY
  5
46C
330
41
100
AcDbDictionary
280
     1
281
     1
  3
ACAD_XREC_ROUNDTRIP
360
46D
  0
DICTIONARY
  5
466
330
3E
100
AcDbDictionary
280
     1
281
     1
  3
ACAD_XREC_ROUNDTRIP
360
467
  0
DICTIONARY
  5
468
330
3F
100
AcDbDictionary
280
     1
281
     1
  3
ACAD_XREC_ROUNDTRIP
360
469
  0
DICTIONARY
  5
458
330
37
100
AcDbDictionary
280
     1
281
     1
  3
ACAD_XREC_ROUNDTRIP
360
459
  0
DICTIONARY
  5
44A
330
30
100
AcDbDictionary
280
     1
281
     1
  3
ACAD_XREC_ROUNDTRIP
360
44B
  0
DICTIONARY
  5
46A
330
40
100
AcDbDictionary
280
     1
281
     1
  3
ACAD_XREC_ROUNDTRIP
360
46B
  0
CELLSTYLEMAP
  5
471
102
{ACAD_REACTORS
330
470
102
}
330
470
100
AcDbCellStyleMap
 90
        3
300
CELLSTYLE
  1
TABLEFORMAT_BEGIN
 90
        5
170
     1
 91
        0
 92
    32768
 62
   257
 93
        1
300
CONTENTFORMAT
  1
CONTENTFORMAT_BEGIN
 90
        0
 91
        0
 92
        4
 93
        0
300

 40
0.0
140
1.0
 94
        5
 62
     0
340
11
144
0.25
309
CONTENTFORMAT_END
171
     1
301
MARGIN
  1
CELLMARGIN_BEGIN
 40
0.06
 40
0.06
 40
0.06
 40
0.06
 40
0.06
 40
0.06
309
CELLMARGIN_END
 94
        6
 95
        1
302
GRIDFORMAT
  1
GRIDFORMAT_BEGIN
 90
        0
 91
        1
 62
     0
 92
       -2
340
14
 93
        0
 40
0.045
309
GRIDFORMAT_END
 95
        2
302
GRIDFORMAT
  1
GRIDFORMAT_BEGIN
 90
        0
 91
        1
 62
     0
 92
       -2
340
14
 93
        0
 40
0.045
309
GRIDFORMAT_END
 95
        4
302
GRIDFORMAT
  1
GRIDFORMAT_BEGIN
 90
        0
 91
        1
 62
     0
 92
       -2
340
14
 93
        0
 40
0.045
309
GRIDFORMAT_END
 95
        8
302
GRIDFORMAT
  1
GRIDFORMAT_BEGIN
 90
        0
 91
        1
 62
     0
 92
       -2
340
14
 93
        0
 40
0.045
309
GRIDFORMAT_END
 95
       16
302
GRIDFORMAT
  1
GRIDFORMAT_BEGIN
 90
        0
 91
        1
 62
     0
 92
       -2
340
14
 93
        0
 40
0.045
309
GRIDFORMAT_END
 95
       32
302
GRIDFORMAT
  1
GRIDFORMAT_BEGIN
 90
        0
 91
        1
 62
     0
 92
       -2
340
14
 93
        0
 40
0.045
309
GRIDFORMAT_END
309
TABLEFORMAT_END
  1
CELLSTYLE_BEGIN
 90
        1
 91
        1
300
_TITLE
309
CELLSTYLE_END
300
CELLSTYLE
  1
TABLEFORMAT_BEGIN
 90
        5
170
     1
 91
        0
 92
        0
 62
   257
 93
        1
300
CONTENTFORMAT
  1
CONTENTFORMAT_BEGIN
 90
        0
 91
        0
 92
        4
 93
        0
300

 40
0.0
140
1.0
 94
        5
 62
     0
340
11
144
0.18
309
CONTENTFORMAT_END
171
     1
301
MARGIN
  1
CELLMARGIN_BEGIN
 40
0.06
 40
0.06
 40
0.06
 40
0.06
 40
0.06
 40
0.06
309
CELLMARGIN_END
 94
        6
 95
        1
302
GRIDFORMAT
  1
GRIDFORMAT_BEGIN
 90
        0
 91
        1
 62
     0
 92
       -2
340
14
 93
        0
 40
0.045
309
GRIDFORMAT_END
 95
        2
302
GRIDFORMAT
  1
GRIDFORMAT_BEGIN
 90
        0
 91
        1
 62
     0
 92
       -2
340
14
 93
        0
 40
0.045
309
GRIDFORMAT_END
 95
        4
302
GRIDFORMAT
  1
GRIDFORMAT_BEGIN
 90
        0
 91
        1
 62
     0
 92
       -2
340
14
 93
        0
 40
0.045
309
GRIDFORMAT_END
 95
        8
302
GRIDFORMAT
  1
GRIDFORMAT_BEGIN
 90
        0
 91
        1
 62
     0
 92
       -2
340
14
 93
        0
 40
0.045
309
GRIDFORMAT_END
 95
       16
302
GRIDFORMAT
  1
GRIDFORMAT_BEGIN
 90
        0
 91
        1
 62
     0
 92
       -2
340
14
 93
        0
 40
0.045
309
GRIDFORMAT_END
 95
       32
302
GRIDFORMAT
  1
GRIDFORMAT_BEGIN
 90
        0
 91
        1
 62
     0
 92
       -2
340
14
 93
        0
 40
0.045
309
GRIDFORMAT_END
309
TABLEFORMAT_END
  1
CELLSTYLE_BEGIN
 90
        2
 91
        1
300
_HEADER
309
CELLSTYLE_END
300
CELLSTYLE
  1
TABLEFORMAT_BEGIN
 90
        5
170
     1
 91
        0
 92
        0
 62
   257
 93
        1
300
CONTENTFORMAT
  1
CONTENTFORMAT_BEGIN
 90
        0
 91
        0
 92
        4
 93
        0
300

 40
0.0
140
1.0
 94
        2
 62
     0
340
11
144
0.18
309
CONTENTFORMAT_END
171
     1
301
MARGIN
  1
CELLMARGIN_BEGIN
 40
0.06
 40
0.06
 40
0.06
 40
0.06
 40
0.06
 40
0.06
309
CELLMARGIN_END
 94
        6
 95
        1
302
GRIDFORMAT
  1
GRIDFORMAT_BEGIN
 90
        0
 91
        1
 62
     0
 92
       -2
340
14
 93
        0
 40
0.045
309
GRIDFORMAT_END
 95
        2
302
GRIDFORMAT
  1
GRIDFORMAT_BEGIN
 90
        0
 91
        1
 62
     0
 92
       -2
340
14
 93
        0
 40
0.045
309
GRIDFORMAT_END
 95
        4
302
GRIDFORMAT
  1
GRIDFORMAT_BEGIN
 90
        0
 91
        1
 62
     0
 92
       -2
340
14
 93
        0
 40
0.045
309
GRIDFORMAT_END
 95
        8
302
GRIDFORMAT
  1
GRIDFORMAT_BEGIN
 90
        0
 91
        1
 62
     0
 92
       -2
340
14
 93
        0
 40
0.045
309
GRIDFORMAT_END
 95
       16
302
GRIDFORMAT
  1
GRIDFORMAT_BEGIN
 90
        0
 91
        1
 62
     0
 92
       -2
340
14
 93
        0
 40
0.045
309
GRIDFORMAT_END
 95
       32
302
GRIDFORMAT
  1
GRIDFORMAT_BEGIN
 90
        0
 91
        1
 62
     0
 92
       -2
340
14
 93
        0
 40
0.045
309
GRIDFORMAT_END
309
TABLEFORMAT_END
  1
CELLSTYLE_BEGIN
 90
        3
 91
        2
300
_DATA
309
CELLSTYLE_END
  0
XRECORD
  5
449
102
{ACAD_REACTORS
330
448
102
}
330
448
100
AcDbXrecord
280
     1
102
RTVSPost2010Prop28
280
     1
102
RTVSPost2010PropOp28
 70
     1
102
RTVSPost2010Prop29
280
     1
102
RTVSPost2010PropOp29
 70
     1
102
RTVSPost2010Prop30
280
     0
102
RTVSPost2010PropOp30
 70
     1
102
RTVSPost2010Prop31
280
     0
102
RTVSPost2010PropOp31
 70
     1
102
RTVSPost2010Prop32
280
     0
102
RTVSPost2010PropOp32
 70
     1
102
RTVSPost2010Prop33
280
     0
102
RTVSPost2010PropOp33
 70
     1
102
RTVSPost2010Prop34
280
     0
102
RTVSPost2010PropOp34
 70
     1
102
RTVSPost2010Prop35
280
     0
102
RTVSPost2010PropOp35
 70
     1
102
RTVSPost2010Prop36
280
     0
102
RTVSPost2010PropOp36
 70
     1
102
RTVSPost2010Prop37
 90
       50
102
RTVSPost2010PropOp37
 70
     1
102
RTVSPost2010Prop38
140
0.0
102
RTVSPost2010PropOp38
 70
     1
102
RTVSPost2010Prop39
140
1.0
102
RTVSPost2010PropOp39
 70
     1
102
RTVSPost2010Prop40
 90
        0
102
RTVSPost2010PropOp40
 70
     1
102
RTVSPost2010Prop41ColorIndex
 90
       18
102
RTVSPost2010Prop41ColorRGB
 90
        0
102
RTVSPost2010PropOp41
 70
     1
102
RTVSPost2010Prop42
 90
       50
102
RTVSPost2010PropOp42
 70
     1
102
RTVSPost2010Prop43
 90
        3
102
RTVSPost2010PropOp43
 70
     1
102
RTVSPost2010Prop44ColorIndex
 90
        5
102
RTVSPost2010Prop44ColorRGB
 90
      255
102
RTVSPost2010PropOp44
 70
     1
102
RTVSPost2010Prop45
280
     0
102
RTVSPost2010PropOp45
 70
     1
102
RTVSPost2010Prop46
 90
       50
102
RTVSPost2010PropOp46
 70
     1
102
RTVSPost2010Prop47
 90
       50
102
RTVSPost2010PropOp47
 70
     1
102
RTVSPost2010Prop48
 90
       50
102
RTVSPost2010PropOp48
 70
     1
102
RTVSPost2010Prop49
280
     0
102
RTVSPost2010PropOp49
 70
     1
102
RTVSPost2010Prop50
 90
       50
102
RTVSPost2010PropOp50
 70
     1
102
RTVSPost2010Prop51ColorIndex
 90
      256
102
RTVSPost2010Prop51ColorRGB
 90
-16777216
102
RTVSPost2010PropOp51
 70
     0
102
RTVSPost2010Prop52
140
1.0
102
RTVSPost2010PropOp52
 70
     0
102
RTVSPost2010Prop53
 90
        2
102
RTVSPost2010PropOp53
 70
     1
102
RTVSPost2010Prop54
  1
strokes_ogs.tif
102
RTVSPost2010PropOp54
 70
     1
102
RTVSPost2010Prop55
280
     0
102
RTVSPost2010PropOp55
 70
     1
102
RTVSPost2010Prop56
140
1.0
102
RTVSPost2010PropOp56
 70
     1
102
RTVSPost2010Prop57
140
1.0
102
RTVSPost2010PropOp57
 70
     1
  0
XRECORD
  5
44F
102
{ACAD_REACTORS
330
44E
102
}
330
44E
100
AcDbXrecord
280
     1
102
RTVSPost2010Prop28
280
     0
102
RTVSPost2010PropOp28
 70
     1
102
RTVSPost2010Prop29
280
     1
102
RTVSPost2010PropOp29
 70
     1
102
RTVSPost2010Prop30
280
     1
102
RTVSPost2010PropOp30
 70
     1
102
RTVSPost2010Prop31
280
     0
102
RTVSPost2010PropOp31
 70
     1
102
RTVSPost2010Prop32
280
     0
102
RTVSPost2010PropOp32
 70
     1
102
RTVSPost2010Prop33
280
     0
102
RTVSPost2010PropOp33
 70
     1
102
RTVSPost2010Prop34
280
     0
102
RTVSPost2010PropOp34
 70
     1
102
RTVSPost2010Prop35
280
     0
102
RTVSPost2010PropOp35
 70
     1
102
RTVSPost2010Prop36
280
     0
102
RTVSPost2010PropOp36
 70
     1
102
RTVSPost2010Prop37
 90
       50
102
RTVSPost2010PropOp37
 70
     1
102
RTVSPost2010Prop38
140
0.0
102
RTVSPost2010PropOp38
 70
     1
102
RTVSPost2010Prop39
140
1.0
102
RTVSPost2010PropOp39
 70
     1
102
RTVSPost2010Prop40
 90
        0
102
RTVSPost2010PropOp40
 70
     1
102
RTVSPost2010Prop41ColorIndex
 90
       18
102
RTVSPost2010Prop41ColorRGB
 90
        0
102
RTVSPost2010PropOp41
 70
     1
102
RTVSPost2010Prop42
 90
       50
102
RTVSPost2010PropOp42
 70
     1
102
RTVSPost2010Prop43
 90
        3
102
RTVSPost2010PropOp43
 70
     1
102
RTVSPost2010Prop44ColorIndex
 90
        5
102
RTVSPost2010Prop44ColorRGB
 90
      255
102
RTVSPost2010PropOp44
 70
     1
102
RTVSPost2010Prop45
280
     0
102
RTVSPost2010PropOp45
 70
     1
102
RTVSPost2010Prop46
 90
       50
102
RTVSPost2010PropOp46
 70
     1
102
RTVSPost2010Prop47
 90
       50
102
RTVSPost2010PropOp47
 70
     1
102
RTVSPost2010Prop48
 90
       50
102
RTVSPost2010PropOp48
 70
     1
102
RTVSPost2010Prop49
280
     0
102
RTVSPost2010PropOp49
 70
     1
102
RTVSPost2010Prop50
 90
       50
102
RTVSPost2010PropOp50
 70
     1
102
RTVSPost2010Prop51ColorIndex
 90
      256
102
RTVSPost2010Prop51ColorRGB
 90
-16777216
102
RTVSPost2010PropOp51
 70
     0
102
RTVSPost2010Prop52
140
1.0
102
RTVSPost2010PropOp52
 70
     0
102
RTVSPost2010Prop53
 90
        2
102
RTVSPost2010PropOp53
 70
     1
102
RTVSPost2010Prop54
  1
strokes_ogs.tif
102
RTVSPost2010PropOp54
 70
     1
102
RTVSPost2010Prop55
280
     0
102
RTVSPost2010PropOp55
 70
     1
102
RTVSPost2010Prop56
140
1.0
102
RTVSPost2010PropOp56
 70
     1
102
RTVSPost2010Prop57
140
1.0
102
RTVSPost2010PropOp57
 70
     1
  0
XRECORD
  5
457
102
{ACAD_REACTORS
330
456
102
}
330
456
100
AcDbXrecord
280
     1
102
RTVSPost2010Prop28
280
     0
102
RTVSPost2010PropOp28
 70
     1
102
RTVSPost2010Prop29
280
     1
102
RTVSPost2010PropOp29
 70
     1
102
RTVSPost2010Prop30
280
     1
102
RTVSPost2010PropOp30
 70
     1
102
RTVSPost2010Prop31
280
     0
102
RTVSPost2010PropOp31
 70
     1
102
RTVSPost2010Prop32
280
     0
102
RTVSPost2010PropOp32
 70
     1
102
RTVSPost2010Prop33
280
     0
102
RTVSPost2010PropOp33
 70
     1
102
RTVSPost2010Prop34
280
     0
102
RTVSPost2010PropOp34
 70
     1
102
RTVSPost2010Prop35
280
     0
102
RTVSPost2010PropOp35
 70
     1
102
RTVSPost2010Prop36
280
     0
102
RTVSPost2010PropOp36
 70
     1
102
RTVSPost2010Prop37
 90
       50
102
RTVSPost2010PropOp37
 70
     1
102
RTVSPost2010Prop38
140
0.0
102
RTVSPost2010PropOp38
 70
     1
102
RTVSPost2010Prop39
140
1.0
102
RTVSPost2010PropOp39
 70
     1
102
RTVSPost2010Prop40
 90
        0
102
RTVSPost2010PropOp40
 70
     1
102
RTVSPost2010Prop41ColorIndex
 90
       18
102
RTVSPost2010Prop41ColorRGB
 90
        0
102
RTVSPost2010PropOp41
 70
     1
102
RTVSPost2010Prop42
 90
       50
102
RTVSPost2010PropOp42
 70
     1
102
RTVSPost2010Prop43
 90
        3
102
RTVSPost2010PropOp43
 70
     1
102
RTVSPost2010Prop44ColorIndex
 90
        5
102
RTVSPost2010Prop44ColorRGB
 90
      255
102
RTVSPost2010PropOp44
 70
     1
102
RTVSPost2010Prop45
280
     0
102
RTVSPost2010PropOp45
 70
     1
102
RTVSPost2010Prop46
 90
       50
102
RTVSPost2010PropOp46
 70
     1
102
RTVSPost2010Prop47
 90
       50
102
RTVSPost2010PropOp47
 70
     1
102
RTVSPost2010Prop48
 90
       50
102
RTVSPost2010PropOp48
 70
     1
102
RTVSPost2010Prop49
280
     0
102
RTVSPost2010PropOp49
 70
     1
102
RTVSPost2010Prop50
 90
       50
102
RTVSPost2010PropOp50
 70
     1
102
RTVSPost2010Prop51ColorIndex
 90
      256
102
RTVSPost2010Prop51ColorRGB
 90
-16777216
102
RTVSPost2010PropOp51
 70
     0
102
RTVSPost2010Prop52
140
1.0
102
RTVSPost2010PropOp52
 70
     0
102
RTVSPost2010Prop53
 90
        2
102
RTVSPost2010PropOp53
 70
     1
102
RTVSPost2010Prop54
  1
strokes_ogs.tif
102
RTVSPost2010PropOp54
 70
     1
102
RTVSPost2010Prop55
280
     0
102
RTVSPost2010PropOp55
 70
     1
102
RTVSPost2010Prop56
140
1.0
102
RTVSPost2010PropOp56
 70
     1
102
RTVSPost2010Prop57
140
1.0
102
RTVSPost2010PropOp57
 70
     1
  0
XRECORD
  5
45F
102
{ACAD_REACTORS
330
45E
102
}
330
45E
100
AcDbXrecord
280
     1
102
RTVSPost2010Prop28
280
     0
102
RTVSPost2010PropOp28
 70
     1
102
RTVSPost2010Prop29
280
     1
102
RTVSPost2010PropOp29
 70
     1
102
RTVSPost2010Prop30
280
     1
102
RTVSPost2010PropOp30
 70
     1
102
RTVSPost2010Prop31
280
     0
102
RTVSPost2010PropOp31
 70
     1
102
RTVSPost2010Prop32
280
     0
102
RTVSPost2010PropOp32
 70
     1
102
RTVSPost2010Prop33
280
     0
102
RTVSPost2010PropOp33
 70
     1
102
RTVSPost2010Prop34
280
     0
102
RTVSPost2010PropOp34
 70
     1
102
RTVSPost2010Prop35
280
     0
102
RTVSPost2010PropOp35
 70
     1
102
RTVSPost2010Prop36
280
     0
102
RTVSPost2010PropOp36
 70
     1
102
RTVSPost2010Prop37
 90
       50
102
RTVSPost2010PropOp37
 70
     1
102
RTVSPost2010Prop38
140
0.0
102
RTVSPost2010PropOp38
 70
     1
102
RTVSPost2010Prop39
140
1.0
102
RTVSPost2010PropOp39
 70
     1
102
RTVSPost2010Prop40
 90
        0
102
RTVSPost2010PropOp40
 70
     1
102
RTVSPost2010Prop41ColorIndex
 90
       18
102
RTVSPost2010Prop41ColorRGB
 90
        0
102
RTVSPost2010PropOp41
 70
     1
102
RTVSPost2010Prop42
 90
       50
102
RTVSPost2010PropOp42
 70
     1
102
RTVSPost2010Prop43
 90
        3
102
RTVSPost2010PropOp43
 70
     1
102
RTVSPost2010Prop44ColorIndex
 90
        5
102
RTVSPost2010Prop44ColorRGB
 90
      255
102
RTVSPost2010PropOp44
 70
     1
102
RTVSPost2010Prop45
280
     0
102
RTVSPost2010PropOp45
 70
     1
102
RTVSPost2010Prop46
 90
       50
102
RTVSPost2010PropOp46
 70
     1
102
RTVSPost2010Prop47
 90
       50
102
RTVSPost2010PropOp47
 70
     1
102
RTVSPost2010Prop48
 90
       50
102
RTVSPost2010PropOp48
 70
     1
102
RTVSPost2010Prop49
280
     0
102
RTVSPost2010PropOp49
 70
     1
102
RTVSPost2010Prop50
 90
       50
102
RTVSPost2010PropOp50
 70
     1
102
RTVSPost2010Prop51ColorIndex
 90
      256
102
RTVSPost2010Prop51ColorRGB
 90
-16777216
102
RTVSPost2010PropOp51
 70
     0
102
RTVSPost2010Prop52
140
1.0
102
RTVSPost2010PropOp52
 70
     0
102
RTVSPost2010Prop53
 90
        2
102
RTVSPost2010PropOp53
 70
     1
102
RTVSPost2010Prop54
  1
strokes_ogs.tif
102
RTVSPost2010PropOp54
 70
     1
102
RTVSPost2010Prop55
280
     0
102
RTVSPost2010PropOp55
 70
     1
102
RTVSPost2010Prop56
140
1.0
102
RTVSPost2010PropOp56
 70
     1
102
RTVSPost2010Prop57
140
1.0
102
RTVSPost2010PropOp57
 70
     1
  0
XRECORD
  5
453
102
{ACAD_REACTORS
330
452
102
}
330
452
100
AcDbXrecord
280
     1
102
RTVSPost2010Prop28
280
     0
102
RTVSPost2010PropOp28
 70
     1
102
RTVSPost2010Prop29
280
     1
102
RTVSPost2010PropOp29
 70
     1
102
RTVSPost2010Prop30
280
     1
102
RTVSPost2010PropOp30
 70
     1
102
RTVSPost2010Prop31
280
     0
102
RTVSPost2010PropOp31
 70
     1
102
RTVSPost2010Prop32
280
     0
102
RTVSPost2010PropOp32
 70
     1
102
RTVSPost2010Prop33
280
     0
102
RTVSPost2010PropOp33
 70
     1
102
RTVSPost2010Prop34
280
     0
102
RTVSPost2010PropOp34
 70
     1
102
RTVSPost2010Prop35
280
     0
102
RTVSPost2010PropOp35
 70
     1
102
RTVSPost2010Prop36
280
     0
102
RTVSPost2010PropOp36
 70
     1
102
RTVSPost2010Prop37
 90
       50
102
RTVSPost2010PropOp37
 70
     1
102
RTVSPost2010Prop38
140
0.0
102
RTVSPost2010PropOp38
 70
     1
102
RTVSPost2010Prop39
140
1.0
102
RTVSPost2010PropOp39
 70
     1
102
RTVSPost2010Prop40
 90
        0
102
RTVSPost2010PropOp40
 70
     1
102
RTVSPost2010Prop41ColorIndex
 90
       18
102
RTVSPost2010Prop41ColorRGB
 90
        0
102
RTVSPost2010PropOp41
 70
     1
102
RTVSPost2010Prop42
 90
       50
102
RTVSPost2010PropOp42
 70
     1
102
RTVSPost2010Prop43
 90
        3
102
RTVSPost2010PropOp43
 70
     1
102
RTVSPost2010Prop44ColorIndex
 90
        5
102
RTVSPost2010Prop44ColorRGB
 90
      255
102
RTVSPost2010PropOp44
 70
     1
102
RTVSPost2010Prop45
280
     0
102
RTVSPost2010PropOp45
 70
     1
102
RTVSPost2010Prop46
 90
       50
102
RTVSPost2010PropOp46
 70
     1
102
RTVSPost2010Prop47
 90
       50
102
RTVSPost2010PropOp47
 70
     1
102
RTVSPost2010Prop48
 90
       50
102
RTVSPost2010PropOp48
 70
     1
102
RTVSPost2010Prop49
280
     0
102
RTVSPost2010PropOp49
 70
     1
102
RTVSPost2010Prop50
 90
       50
102
RTVSPost2010PropOp50
 70
     1
102
RTVSPost2010Prop51ColorIndex
 90
      256
102
RTVSPost2010Prop51ColorRGB
 90
-16777216
102
RTVSPost2010PropOp51
 70
     0
102
RTVSPost2010Prop52
140
1.0
102
RTVSPost2010PropOp52
 70
     0
102
RTVSPost2010Prop53
 90
        2
102
RTVSPost2010PropOp53
 70
     1
102
RTVSPost2010Prop54
  1
strokes_ogs.tif
102
RTVSPost2010PropOp54
 70
     1
102
RTVSPost2010Prop55
280
     0
102
RTVSPost2010PropOp55
 70
     1
102
RTVSPost2010Prop56
140
1.0
102
RTVSPost2010PropOp56
 70
     1
102
RTVSPost2010Prop57
140
1.0
102
RTVSPost2010PropOp57
 70
     1
  0
XRECORD
  5
455
102
{ACAD_REACTORS
330
454
102
}
330
454
100
AcDbXrecord
280
     1
102
RTVSPost2010Prop28
280
     0
102
RTVSPost2010PropOp28
 70
     1
102
RTVSPost2010Prop29
280
     1
102
RTVSPost2010PropOp29
 70
     1
102
RTVSPost2010Prop30
280
     1
102
RTVSPost2010PropOp30
 70
     1
102
RTVSPost2010Prop31
280
     0
102
RTVSPost2010PropOp31
 70
     1
102
RTVSPost2010Prop32
280
     0
102
RTVSPost2010PropOp32
 70
     1
102
RTVSPost2010Prop33
280
     0
102
RTVSPost2010PropOp33
 70
     1
102
RTVSPost2010Prop34
280
     0
102
RTVSPost2010PropOp34
 70
     1
102
RTVSPost2010Prop35
280
     0
102
RTVSPost2010PropOp35
 70
     1
102
RTVSPost2010Prop36
280
     0
102
RTVSPost2010PropOp36
 70
     1
102
RTVSPost2010Prop37
 90
       50
102
RTVSPost2010PropOp37
 70
     1
102
RTVSPost2010Prop38
140
0.0
102
RTVSPost2010PropOp38
 70
     1
102
RTVSPost2010Prop39
140
1.0
102
RTVSPost2010PropOp39
 70
     1
102
RTVSPost2010Prop40
 90
        0
102
RTVSPost2010PropOp40
 70
     1
102
RTVSPost2010Prop41ColorIndex
 90
       18
102
RTVSPost2010Prop41ColorRGB
 90
        0
102
RTVSPost2010PropOp41
 70
     1
102
RTVSPost2010Prop42
 90
       50
102
RTVSPost2010PropOp42
 70
     1
102
RTVSPost2010Prop43
 90
        3
102
RTVSPost2010PropOp43
 70
     1
102
RTVSPost2010Prop44ColorIndex
 90
        5
102
RTVSPost2010Prop44ColorRGB
 90
      255
102
RTVSPost2010PropOp44
 70
     1
102
RTVSPost2010Prop45
280
     0
102
RTVSPost2010PropOp45
 70
     1
102
RTVSPost2010Prop46
 90
       50
102
RTVSPost2010PropOp46
 70
     1
102
RTVSPost2010Prop47
 90
       50
102
RTVSPost2010PropOp47
 70
     1
102
RTVSPost2010Prop48
 90
       50
102
RTVSPost2010PropOp48
 70
     1
102
RTVSPost2010Prop49
280
     0
102
RTVSPost2010PropOp49
 70
     1
102
RTVSPost2010Prop50
 90
       50
102
RTVSPost2010PropOp50
 70
     1
102
RTVSPost2010Prop51ColorIndex
 90
      256
102
RTVSPost2010Prop51ColorRGB
 90
-16777216
102
RTVSPost2010PropOp51
 70
     0
102
RTVSPost2010Prop52
140
1.0
102
RTVSPost2010PropOp52
 70
     0
102
RTVSPost2010Prop53
 90
        2
102
RTVSPost2010PropOp53
 70
     1
102
RTVSPost2010Prop54
  1
strokes_ogs.tif
102
RTVSPost2010PropOp54
 70
     1
102
RTVSPost2010Prop55
280
     0
102
RTVSPost2010PropOp55
 70
     1
102
RTVSPost2010Prop56
140
1.0
102
RTVSPost2010PropOp56
 70
     1
102
RTVSPost2010Prop57
140
1.0
102
RTVSPost2010PropOp57
 70
     1
  0
XRECORD
  5
465
102
{ACAD_REACTORS
330
464
102
}
330
464
100
AcDbXrecord
280
     1
102
RTVSPost2010Prop28
280
     0
102
RTVSPost2010PropOp28
 70
     0
102
RTVSPost2010Prop29
280
     1
102
RTVSPost2010PropOp29
 70
     0
102
RTVSPost2010Prop30
280
     1
102
RTVSPost2010PropOp30
 70
     0
102
RTVSPost2010Prop31
280
     0
102
RTVSPost2010PropOp31
 70
     0
102
RTVSPost2010Prop32
280
     0
102
RTVSPost2010PropOp32
 70
     0
102
RTVSPost2010Prop33
280
     0
102
RTVSPost2010PropOp33
 70
     0
102
RTVSPost2010Prop34
280
     0
102
RTVSPost2010PropOp34
 70
     0
102
RTVSPost2010Prop35
280
     0
102
RTVSPost2010PropOp35
 70
     0
102
RTVSPost2010Prop36
280
     0
102
RTVSPost2010PropOp36
 70
     0
102
RTVSPost2010Prop37
 90
       50
102
RTVSPost2010PropOp37
 70
     0
102
RTVSPost2010Prop38
140
0.0
102
RTVSPost2010PropOp38
 70
     0
102
RTVSPost2010Prop39
140
1.0
102
RTVSPost2010PropOp39
 70
     0
102
RTVSPost2010Prop40
 90
        0
102
RTVSPost2010PropOp40
 70
     0
102
RTVSPost2010Prop41ColorIndex
 90
       18
102
RTVSPost2010Prop41ColorRGB
 90
        0
102
RTVSPost2010PropOp41
 70
     0
102
RTVSPost2010Prop42
 90
       50
102
RTVSPost2010PropOp42
 70
     0
102
RTVSPost2010Prop43
 90
        3
102
RTVSPost2010PropOp43
 70
     0
102
RTVSPost2010Prop44ColorIndex
 90
        5
102
RTVSPost2010Prop44ColorRGB
 90
      255
102
RTVSPost2010PropOp44
 70
     0
102
RTVSPost2010Prop45
280
     0
102
RTVSPost2010PropOp45
 70
     0
102
RTVSPost2010Prop46
 90
       50
102
RTVSPost2010PropOp46
 70
     0
102
RTVSPost2010Prop47
 90
       50
102
RTVSPost2010PropOp47
 70
     0
102
RTVSPost2010Prop48
 90
       50
102
RTVSPost2010PropOp48
 70
     0
102
RTVSPost2010Prop49
280
     0
102
RTVSPost2010PropOp49
 70
     0
102
RTVSPost2010Prop50
 90
       50
102
RTVSPost2010PropOp50
 70
     0
102
RTVSPost2010Prop51ColorIndex
 90
      256
102
RTVSPost2010Prop51ColorRGB
 90
-16777216
102
RTVSPost2010PropOp51
 70
     0
102
RTVSPost2010Prop52
140
1.0
102
RTVSPost2010PropOp52
 70
     0
102
RTVSPost2010Prop53
 90
        2
102
RTVSPost2010PropOp53
 70
     0
102
RTVSPost2010Prop54
  1
strokes_ogs.tif
102
RTVSPost2010PropOp54
 70
     0
102
RTVSPost2010Prop55
280
     0
102
RTVSPost2010PropOp55
 70
     0
102
RTVSPost2010Prop56
140
1.0
102
RTVSPost2010PropOp56
 70
     0
102
RTVSPost2010Prop57
140
1.0
102
RTVSPost2010PropOp57
 70
     0
  0
XRECORD
  5
45D
102
{ACAD_REACTORS
330
45C
102
}
330
45C
100
AcDbXrecord
280
     1
102
RTVSPost2010Prop28
280
     0
102
RTVSPost2010PropOp28
 70
     1
102
RTVSPost2010Prop29
280
     1
102
RTVSPost2010PropOp29
 70
     1
102
RTVSPost2010Prop30
280
     1
102
RTVSPost2010PropOp30
 70
     1
102
RTVSPost2010Prop31
280
     0
102
RTVSPost2010PropOp31
 70
     1
102
RTVSPost2010Prop32
280
     0
102
RTVSPost2010PropOp32
 70
     1
102
RTVSPost2010Prop33
280
     0
102
RTVSPost2010PropOp33
 70
     1
102
RTVSPost2010Prop34
280
     0
102
RTVSPost2010PropOp34
 70
     1
102
RTVSPost2010Prop35
280
     0
102
RTVSPost2010PropOp35
 70
     1
102
RTVSPost2010Prop36
280
     0
102
RTVSPost2010PropOp36
 70
     1
102
RTVSPost2010Prop37
 90
       50
102
RTVSPost2010PropOp37
 70
     1
102
RTVSPost2010Prop38
140
0.0
102
RTVSPost2010PropOp38
 70
     1
102
RTVSPost2010Prop39
140
1.0
102
RTVSPost2010PropOp39
 70
     1
102
RTVSPost2010Prop40
 90
        0
102
RTVSPost2010PropOp40
 70
     1
102
RTVSPost2010Prop41ColorIndex
 90
       18
102
RTVSPost2010Prop41ColorRGB
 90
        0
102
RTVSPost2010PropOp41
 70
     1
102
RTVSPost2010Prop42
 90
       50
102
RTVSPost2010PropOp42
 70
     1
102
RTVSPost2010Prop43
 90
        3
102
RTVSPost2010PropOp43
 70
     1
102
RTVSPost2010Prop44ColorIndex
 90
        5
102
RTVSPost2010Prop44ColorRGB
 90
      255
102
RTVSPost2010PropOp44
 70
     1
102
RTVSPost2010Prop45
280
     0
102
RTVSPost2010PropOp45
 70
     1
102
RTVSPost2010Prop46
 90
       50
102
RTVSPost2010PropOp46
 70
     1
102
RTVSPost2010Prop47
 90
       50
102
RTVSPost2010PropOp47
 70
     1
102
RTVSPost2010Prop48
 90
       50
102
RTVSPost2010PropOp48
 70
     1
102
RTVSPost2010Prop49
280
     0
102
RTVSPost2010PropOp49
 70
     1
102
RTVSPost2010Prop50
 90
       50
102
RTVSPost2010PropOp50
 70
     1
102
RTVSPost2010Prop51ColorIndex
 90
      256
102
RTVSPost2010Prop51ColorRGB
 90
-16777216
102
RTVSPost2010PropOp51
 70
     0
102
RTVSPost2010Prop52
140
1.0
102
RTVSPost2010PropOp52
 70
     0
102
RTVSPost2010Prop53
 90
        2
102
RTVSPost2010PropOp53
 70
     1
102
RTVSPost2010Prop54
  1
strokes_ogs.tif
102
RTVSPost2010PropOp54
 70
     1
102
RTVSPost2010Prop55
280
     0
102
RTVSPost2010PropOp55
 70
     1
102
RTVSPost2010Prop56
140
1.0
102
RTVSPost2010PropOp56
 70
     1
102
RTVSPost2010Prop57
140
1.0
102
RTVSPost2010PropOp57
 70
     1
  0
XRECORD
  5
441
102
{ACAD_REACTORS
330
440
102
}
330
440
100
AcDbXrecord
280
     1
102
RTVSPost2010Prop28
280
     0
102
RTVSPost2010PropOp28
 70
     1
102
RTVSPost2010Prop29
280
     1
102
RTVSPost2010PropOp29
 70
     1
102
RTVSPost2010Prop30
280
     1
102
RTVSPost2010PropOp30
 70
     1
102
RTVSPost2010Prop31
280
     0
102
RTVSPost2010PropOp31
 70
     1
102
RTVSPost2010Prop32
280
     0
102
RTVSPost2010PropOp32
 70
     1
102
RTVSPost2010Prop33
280
     0
102
RTVSPost2010PropOp33
 70
     1
102
RTVSPost2010Prop34
280
     0
102
RTVSPost2010PropOp34
 70
     1
102
RTVSPost2010Prop35
280
     0
102
RTVSPost2010PropOp35
 70
     1
102
RTVSPost2010Prop36
280
     0
102
RTVSPost2010PropOp36
 70
     1
102
RTVSPost2010Prop37
 90
       50
102
RTVSPost2010PropOp37
 70
     1
102
RTVSPost2010Prop38
140
0.0
102
RTVSPost2010PropOp38
 70
     1
102
RTVSPost2010Prop39
140
1.0
102
RTVSPost2010PropOp39
 70
     1
102
RTVSPost2010Prop40
 90
        0
102
RTVSPost2010PropOp40
 70
     1
102
RTVSPost2010Prop41ColorIndex
 90
       18
102
RTVSPost2010Prop41ColorRGB
 90
        0
102
RTVSPost2010PropOp41
 70
     1
102
RTVSPost2010Prop42
 90
       50
102
RTVSPost2010PropOp42
 70
     1
102
RTVSPost2010Prop43
 90
        3
102
RTVSPost2010PropOp43
 70
     1
102
RTVSPost2010Prop44ColorIndex
 90
        5
102
RTVSPost2010Prop44ColorRGB
 90
      255
102
RTVSPost2010PropOp44
 70
     1
102
RTVSPost2010Prop45
280
     0
102
RTVSPost2010PropOp45
 70
     1
102
RTVSPost2010Prop46
 90
       50
102
RTVSPost2010PropOp46
 70
     1
102
RTVSPost2010Prop47
 90
       50
102
RTVSPost2010PropOp47
 70
     1
102
RTVSPost2010Prop48
 90
       50
102
RTVSPost2010PropOp48
 70
     1
102
RTVSPost2010Prop49
280
     0
102
RTVSPost2010PropOp49
 70
     1
102
RTVSPost2010Prop50
 90
       50
102
RTVSPost2010PropOp50
 70
     1
102
RTVSPost2010Prop51ColorIndex
 90
      256
102
RTVSPost2010Prop51ColorRGB
 90
-16777216
102
RTVSPost2010PropOp51
 70
     0
102
RTVSPost2010Prop52
140
1.0
102
RTVSPost2010PropOp52
 70
     0
102
RTVSPost2010Prop53
 90
        2
102
RTVSPost2010PropOp53
 70
     1
102
RTVSPost2010Prop54
  1
strokes_ogs.tif
102
RTVSPost2010PropOp54
 70
     1
102
RTVSPost2010Prop55
280
     0
102
RTVSPost2010PropOp55
 70
     1
102
RTVSPost2010Prop56
140
1.0
102
RTVSPost2010PropOp56
 70
     1
102
RTVSPost2010Prop57
140
1.0
102
RTVSPost2010PropOp57
 70
     1
  0
XRECORD
  5
443
102
{ACAD_REACTORS
330
442
102
}
330
442
100
AcDbXrecord
280
     1
102
RTVSPost2010Prop28
280
     0
102
RTVSPost2010PropOp28
 70
     1
102
RTVSPost2010Prop29
280
     1
102
RTVSPost2010PropOp29
 70
     1
102
RTVSPost2010Prop30
280
     1
102
RTVSPost2010PropOp30
 70
     1
102
RTVSPost2010Prop31
280
     0
102
RTVSPost2010PropOp31
 70
     1
102
RTVSPost2010Prop32
280
     0
102
RTVSPost2010PropOp32
 70
     1
102
RTVSPost2010Prop33
280
     0
102
RTVSPost2010PropOp33
 70
     1
102
RTVSPost2010Prop34
280
     0
102
RTVSPost2010PropOp34
 70
     1
102
RTVSPost2010Prop35
280
     0
102
RTVSPost2010PropOp35
 70
     1
102
RTVSPost2010Prop36
280
     0
102
RTVSPost2010PropOp36
 70
     1
102
RTVSPost2010Prop37
 90
       50
102
RTVSPost2010PropOp37
 70
     1
102
RTVSPost2010Prop38
140
0.0
102
RTVSPost2010PropOp38
 70
     1
102
RTVSPost2010Prop39
140
1.0
102
RTVSPost2010PropOp39
 70
     1
102
RTVSPost2010Prop40
 90
        0
102
RTVSPost2010PropOp40
 70
     1
102
RTVSPost2010Prop41ColorIndex
 90
       18
102
RTVSPost2010Prop41ColorRGB
 90
        0
102
RTVSPost2010PropOp41
 70
     1
102
RTVSPost2010Prop42
 90
       50
102
RTVSPost2010PropOp42
 70
     1
102
RTVSPost2010Prop43
 90
        3
102
RTVSPost2010PropOp43
 70
     1
102
RTVSPost2010Prop44ColorIndex
 90
        5
102
RTVSPost2010Prop44ColorRGB
 90
      255
102
RTVSPost2010PropOp44
 70
     1
102
RTVSPost2010Prop45
280
     0
102
RTVSPost2010PropOp45
 70
     1
102
RTVSPost2010Prop46
 90
       50
102
RTVSPost2010PropOp46
 70
     1
102
RTVSPost2010Prop47
 90
       50
102
RTVSPost2010PropOp47
 70
     1
102
RTVSPost2010Prop48
 90
       50
102
RTVSPost2010PropOp48
 70
     1
102
RTVSPost2010Prop49
280
     0
102
RTVSPost2010PropOp49
 70
     1
102
RTVSPost2010Prop50
 90
       50
102
RTVSPost2010PropOp50
 70
     1
102
RTVSPost2010Prop51ColorIndex
 90
      256
102
RTVSPost2010Prop51ColorRGB
 90
-16777216
102
RTVSPost2010PropOp51
 70
     0
102
RTVSPost2010Prop52
140
1.0
102
RTVSPost2010PropOp52
 70
     0
102
RTVSPost2010Prop53
 90
        2
102
RTVSPost2010PropOp53
 70
     1
102
RTVSPost2010Prop54
  1
strokes_ogs.tif
102
RTVSPost2010PropOp54
 70
     1
102
RTVSPost2010Prop55
280
     0
102
RTVSPost2010PropOp55
 70
     1
102
RTVSPost2010Prop56
140
1.0
102
RTVSPost2010PropOp56
 70
     1
102
RTVSPost2010Prop57
140
1.0
102
RTVSPost2010PropOp57
 70
     1
  0
XRECORD
  5
445
102
{ACAD_REACTORS
330
444
102
}
330
444
100
AcDbXrecord
280
     1
102
RTVSPost2010Prop28
280
     0
102
RTVSPost2010PropOp28
 70
     1
102
RTVSPost2010Prop29
280
     1
102
RTVSPost2010PropOp29
 70
     1
102
RTVSPost2010Prop30
280
     1
102
RTVSPost2010PropOp30
 70
     1
102
RTVSPost2010Prop31
280
     0
102
RTVSPost2010PropOp31
 70
     1
102
RTVSPost2010Prop32
280
     0
102
RTVSPost2010PropOp32
 70
     1
102
RTVSPost2010Prop33
280
     0
102
RTVSPost2010PropOp33
 70
     1
102
RTVSPost2010Prop34
280
     0
102
RTVSPost2010PropOp34
 70
     1
102
RTVSPost2010Prop35
280
     0
102
RTVSPost2010PropOp35
 70
     1
102
RTVSPost2010Prop36
280
     0
102
RTVSPost2010PropOp36
 70
     1
102
RTVSPost2010Prop37
 90
       50
102
RTVSPost2010PropOp37
 70
     1
102
RTVSPost2010Prop38
140
0.0
102
RTVSPost2010PropOp38
 70
     1
102
RTVSPost2010Prop39
140
1.0
102
RTVSPost2010PropOp39
 70
     1
102
RTVSPost2010Prop40
 90
        0
102
RTVSPost2010PropOp40
 70
     1
102
RTVSPost2010Prop41ColorIndex
 90
       18
102
RTVSPost2010Prop41ColorRGB
 90
        0
102
RTVSPost2010PropOp41
 70
     1
102
RTVSPost2010Prop42
 90
       50
102
RTVSPost2010PropOp42
 70
     1
102
RTVSPost2010Prop43
 90
        3
102
RTVSPost2010PropOp43
 70
     1
102
RTVSPost2010Prop44ColorIndex
 90
        5
102
RTVSPost2010Prop44ColorRGB
 90
      255
102
RTVSPost2010PropOp44
 70
     1
102
RTVSPost2010Prop45
280
     0
102
RTVSPost2010PropOp45
 70
     1
102
RTVSPost2010Prop46
 90
       50
102
RTVSPost2010PropOp46
 70
     1
102
RTVSPost2010Prop47
 90
       50
102
RTVSPost2010PropOp47
 70
     1
102
RTVSPost2010Prop48
 90
       50
102
RTVSPost2010PropOp48
 70
     1
102
RTVSPost2010Prop49
280
     0
102
RTVSPost2010PropOp49
 70
     1
102
RTVSPost2010Prop50
 90
       50
102
RTVSPost2010PropOp50
 70
     1
102
RTVSPost2010Prop51ColorIndex
 90
      256
102
RTVSPost2010Prop51ColorRGB
 90
-16777216
102
RTVSPost2010PropOp51
 70
     0
102
RTVSPost2010Prop52
140
1.0
102
RTVSPost2010PropOp52
 70
     0
102
RTVSPost2010Prop53
 90
        2
102
RTVSPost2010PropOp53
 70
     1
102
RTVSPost2010Prop54
  1
strokes_ogs.tif
102
RTVSPost2010PropOp54
 70
     1
102
RTVSPost2010Prop55
280
     0
102
RTVSPost2010PropOp55
 70
     1
102
RTVSPost2010Prop56
140
1.0
102
RTVSPost2010PropOp56
 70
     1
102
RTVSPost2010Prop57
140
1.0
102
RTVSPost2010PropOp57
 70
     1
  0
XRECORD
  5
447
102
{ACAD_REACTORS
330
446
102
}
330
446
100
AcDbXrecord
280
     1
102
RTVSPost2010Prop28
280
     0
102
RTVSPost2010PropOp28
 70
     1
102
RTVSPost2010Prop29
280
     1
102
RTVSPost2010PropOp29
 70
     1
102
RTVSPost2010Prop30
280
     1
102
RTVSPost2010PropOp30
 70
     1
102
RTVSPost2010Prop31
280
     0
102
RTVSPost2010PropOp31
 70
     1
102
RTVSPost2010Prop32
280
     0
102
RTVSPost2010PropOp32
 70
     1
102
RTVSPost2010Prop33
280
     0
102
RTVSPost2010PropOp33
 70
     1
102
RTVSPost2010Prop34
280
     0
102
RTVSPost2010PropOp34
 70
     1
102
RTVSPost2010Prop35
280
     0
102
RTVSPost2010PropOp35
 70
     1
102
RTVSPost2010Prop36
280
     0
102
RTVSPost2010PropOp36
 70
     1
102
RTVSPost2010Prop37
 90
       50
102
RTVSPost2010PropOp37
 70
     1
102
RTVSPost2010Prop38
140
0.0
102
RTVSPost2010PropOp38
 70
     1
102
RTVSPost2010Prop39
140
1.0
102
RTVSPost2010PropOp39
 70
     1
102
RTVSPost2010Prop40
 90
        0
102
RTVSPost2010PropOp40
 70
     1
102
RTVSPost2010Prop41ColorIndex
 90
       18
102
RTVSPost2010Prop41ColorRGB
 90
        0
102
RTVSPost2010PropOp41
 70
     1
102
RTVSPost2010Prop42
 90
       50
102
RTVSPost2010PropOp42
 70
     1
102
RTVSPost2010Prop43
 90
        3
102
RTVSPost2010PropOp43
 70
     1
102
RTVSPost2010Prop44ColorIndex
 90
        5
102
RTVSPost2010Prop44ColorRGB
 90
      255
102
RTVSPost2010PropOp44
 70
     1
102
RTVSPost2010Prop45
280
     0
102
RTVSPost2010PropOp45
 70
     1
102
RTVSPost2010Prop46
 90
       50
102
RTVSPost2010PropOp46
 70
     1
102
RTVSPost2010Prop47
 90
       50
102
RTVSPost2010PropOp47
 70
     1
102
RTVSPost2010Prop48
 90
       50
102
RTVSPost2010PropOp48
 70
     1
102
RTVSPost2010Prop49
280
     0
102
RTVSPost2010PropOp49
 70
     1
102
RTVSPost2010Prop50
 90
       50
102
RTVSPost2010PropOp50
 70
     1
102
RTVSPost2010Prop51ColorIndex
 90
      256
102
RTVSPost2010Prop51ColorRGB
 90
-16777216
102
RTVSPost2010PropOp51
 70
     0
102
RTVSPost2010Prop52
140
1.0
102
RTVSPost2010PropOp52
 70
     0
102
RTVSPost2010Prop53
 90
        2
102
RTVSPost2010PropOp53
 70
     1
102
RTVSPost2010Prop54
  1
strokes_ogs.tif
102
RTVSPost2010PropOp54
 70
     1
102
RTVSPost2010Prop55
280
     0
102
RTVSPost2010PropOp55
 70
     1
102
RTVSPost2010Prop56
140
1.0
102
RTVSPost2010PropOp56
 70
     1
102
RTVSPost2010Prop57
140
1.0
102
RTVSPost2010PropOp57
 70
     1
  0
XRECORD
  5
44D
102
{ACAD_REACTORS
330
44C
102
}
330
44C
100
AcDbXrecord
280
     1
102
RTVSPost2010Prop28
280
     0
102
RTVSPost2010PropOp28
 70
     1
102
RTVSPost2010Prop29
280
     1
102
RTVSPost2010PropOp29
 70
     1
102
RTVSPost2010Prop30
280
     1
102
RTVSPost2010PropOp30
 70
     1
102
RTVSPost2010Prop31
280
     0
102
RTVSPost2010PropOp31
 70
     1
102
RTVSPost2010Prop32
280
     0
102
RTVSPost2010PropOp32
 70
     1
102
RTVSPost2010Prop33
280
     0
102
RTVSPost2010PropOp33
 70
     1
102
RTVSPost2010Prop34
280
     0
102
RTVSPost2010PropOp34
 70
     1
102
RTVSPost2010Prop35
280
     0
102
RTVSPost2010PropOp35
 70
     1
102
RTVSPost2010Prop36
280
     0
102
RTVSPost2010PropOp36
 70
     1
102
RTVSPost2010Prop37
 90
       50
102
RTVSPost2010PropOp37
 70
     1
102
RTVSPost2010Prop38
140
0.0
102
RTVSPost2010PropOp38
 70
     1
102
RTVSPost2010Prop39
140
1.0
102
RTVSPost2010PropOp39
 70
     1
102
RTVSPost2010Prop40
 90
        0
102
RTVSPost2010PropOp40
 70
     1
102
RTVSPost2010Prop41ColorIndex
 90
       18
102
RTVSPost2010Prop41ColorRGB
 90
        0
102
RTVSPost2010PropOp41
 70
     1
102
RTVSPost2010Prop42
 90
       50
102
RTVSPost2010PropOp42
 70
     1
102
RTVSPost2010Prop43
 90
        3
102
RTVSPost2010PropOp43
 70
     1
102
RTVSPost2010Prop44ColorIndex
 90
        5
102
RTVSPost2010Prop44ColorRGB
 90
      255
102
RTVSPost2010PropOp44
 70
     1
102
RTVSPost2010Prop45
280
     0
102
RTVSPost2010PropOp45
 70
     1
102
RTVSPost2010Prop46
 90
       50
102
RTVSPost2010PropOp46
 70
     1
102
RTVSPost2010Prop47
 90
       50
102
RTVSPost2010PropOp47
 70
     1
102
RTVSPost2010Prop48
 90
       50
102
RTVSPost2010PropOp48
 70
     1
102
RTVSPost2010Prop49
280
     0
102
RTVSPost2010PropOp49
 70
     1
102
RTVSPost2010Prop50
 90
       50
102
RTVSPost2010PropOp50
 70
     1
102
RTVSPost2010Prop51ColorIndex
 90
      256
102
RTVSPost2010Prop51ColorRGB
 90
-16777216
102
RTVSPost2010PropOp51
 70
     0
102
RTVSPost2010Prop52
140
1.0
102
RTVSPost2010PropOp52
 70
     0
102
RTVSPost2010Prop53
 90
        2
102
RTVSPost2010PropOp53
 70
     1
102
RTVSPost2010Prop54
  1
strokes_ogs.tif
102
RTVSPost2010PropOp54
 70
     1
102
RTVSPost2010Prop55
280
     0
102
RTVSPost2010PropOp55
 70
     1
102
RTVSPost2010Prop56
140
1.0
102
RTVSPost2010PropOp56
 70
     1
102
RTVSPost2010Prop57
140
1.0
102
RTVSPost2010PropOp57
 70
     1
  0
XRECORD
  5
461
102
{ACAD_REACTORS
330
460
102
}
330
460
100
AcDbXrecord
280
     1
102
RTVSPost2010Prop28
280
     0
102
RTVSPost2010PropOp28
 70
     0
102
RTVSPost2010Prop29
280
     1
102
RTVSPost2010PropOp29
 70
     0
102
RTVSPost2010Prop30
280
     1
102
RTVSPost2010PropOp30
 70
     0
102
RTVSPost2010Prop31
280
     0
102
RTVSPost2010PropOp31
 70
     0
102
RTVSPost2010Prop32
280
     0
102
RTVSPost2010PropOp32
 70
     0
102
RTVSPost2010Prop33
280
     0
102
RTVSPost2010PropOp33
 70
     0
102
RTVSPost2010Prop34
280
     0
102
RTVSPost2010PropOp34
 70
     0
102
RTVSPost2010Prop35
280
     0
102
RTVSPost2010PropOp35
 70
     0
102
RTVSPost2010Prop36
280
     0
102
RTVSPost2010PropOp36
 70
     0
102
RTVSPost2010Prop37
 90
       50
102
RTVSPost2010PropOp37
 70
     0
102
RTVSPost2010Prop38
140
0.0
102
RTVSPost2010PropOp38
 70
     0
102
RTVSPost2010Prop39
140
1.0
102
RTVSPost2010PropOp39
 70
     0
102
RTVSPost2010Prop40
 90
        0
102
RTVSPost2010PropOp40
 70
     0
102
RTVSPost2010Prop41ColorIndex
 90
       18
102
RTVSPost2010Prop41ColorRGB
 90
        0
102
RTVSPost2010PropOp41
 70
     0
102
RTVSPost2010Prop42
 90
       50
102
RTVSPost2010PropOp42
 70
     0
102
RTVSPost2010Prop43
 90
        3
102
RTVSPost2010PropOp43
 70
     0
102
RTVSPost2010Prop44ColorIndex
 90
        5
102
RTVSPost2010Prop44ColorRGB
 90
      255
102
RTVSPost2010PropOp44
 70
     0
102
RTVSPost2010Prop45
280
     0
102
RTVSPost2010PropOp45
 70
     0
102
RTVSPost2010Prop46
 90
       50
102
RTVSPost2010PropOp46
 70
     0
102
RTVSPost2010Prop47
 90
       50
102
RTVSPost2010PropOp47
 70
     0
102
RTVSPost2010Prop48
 90
       50
102
RTVSPost2010PropOp48
 70
     0
102
RTVSPost2010Prop49
280
     0
102
RTVSPost2010PropOp49
 70
     0
102
RTVSPost2010Prop50
 90
       50
102
RTVSPost2010PropOp50
 70
     0
102
RTVSPost2010Prop51ColorIndex
 90
      256
102
RTVSPost2010Prop51ColorRGB
 90
-16777216
102
RTVSPost2010PropOp51
 70
     0
102
RTVSPost2010Prop52
140
1.0
102
RTVSPost2010PropOp52
 70
     0
102
RTVSPost2010Prop53
 90
        2
102
RTVSPost2010PropOp53
 70
     0
102
RTVSPost2010Prop54
  1
strokes_ogs.tif
102
RTVSPost2010PropOp54
 70
     0
102
RTVSPost2010Prop55
280
     0
102
RTVSPost2010PropOp55
 70
     0
102
RTVSPost2010Prop56
140
1.0
102
RTVSPost2010PropOp56
 70
     0
102
RTVSPost2010Prop57
140
1.0
102
RTVSPost2010PropOp57
 70
     0
  0
XRECORD
  5
45B
102
{ACAD_REACTORS
330
45A
102
}
330
45A
100
AcDbXrecord
280
     1
102
RTVSPost2010Prop28
280
     0
102
RTVSPost2010PropOp28
 70
     1
102
RTVSPost2010Prop29
280
     1
102
RTVSPost2010PropOp29
 70
     1
102
RTVSPost2010Prop30
280
     1
102
RTVSPost2010PropOp30
 70
     1
102
RTVSPost2010Prop31
280
     0
102
RTVSPost2010PropOp31
 70
     1
102
RTVSPost2010Prop32
280
     0
102
RTVSPost2010PropOp32
 70
     1
102
RTVSPost2010Prop33
280
     0
102
RTVSPost2010PropOp33
 70
     1
102
RTVSPost2010Prop34
280
     0
102
RTVSPost2010PropOp34
 70
     1
102
RTVSPost2010Prop35
280
     0
102
RTVSPost2010PropOp35
 70
     1
102
RTVSPost2010Prop36
280
     0
102
RTVSPost2010PropOp36
 70
     1
102
RTVSPost2010Prop37
 90
       50
102
RTVSPost2010PropOp37
 70
     1
102
RTVSPost2010Prop38
140
0.0
102
RTVSPost2010PropOp38
 70
     1
102
RTVSPost2010Prop39
140
1.0
102
RTVSPost2010PropOp39
 70
     1
102
RTVSPost2010Prop40
 90
        0
102
RTVSPost2010PropOp40
 70
     1
102
RTVSPost2010Prop41ColorIndex
 90
       18
102
RTVSPost2010Prop41ColorRGB
 90
        0
102
RTVSPost2010PropOp41
 70
     1
102
RTVSPost2010Prop42
 90
       50
102
RTVSPost2010PropOp42
 70
     1
102
RTVSPost2010Prop43
 90
        3
102
RTVSPost2010PropOp43
 70
     1
102
RTVSPost2010Prop44ColorIndex
 90
        5
102
RTVSPost2010Prop44ColorRGB
 90
      255
102
RTVSPost2010PropOp44
 70
     1
102
RTVSPost2010Prop45
280
     0
102
RTVSPost2010PropOp45
 70
     1
102
RTVSPost2010Prop46
 90
       50
102
RTVSPost2010PropOp46
 70
     1
102
RTVSPost2010Prop47
 90
       50
102
RTVSPost2010PropOp47
 70
     1
102
RTVSPost2010Prop48
 90
       50
102
RTVSPost2010PropOp48
 70
     1
102
RTVSPost2010Prop49
280
     0
102
RTVSPost2010PropOp49
 70
     1
102
RTVSPost2010Prop50
 90
       50
102
RTVSPost2010PropOp50
 70
     1
102
RTVSPost2010Prop51ColorIndex
 90
      256
102
RTVSPost2010Prop51ColorRGB
 90
-16777216
102
RTVSPost2010PropOp51
 70
     0
102
RTVSPost2010Prop52
140
1.0
102
RTVSPost2010PropOp52
 70
     0
102
RTVSPost2010Prop53
 90
        2
102
RTVSPost2010PropOp53
 70
     1
102
RTVSPost2010Prop54
  1
strokes_ogs.tif
102
RTVSPost2010PropOp54
 70
     1
102
RTVSPost2010Prop55
280
     0
102
RTVSPost2010PropOp55
 70
     1
102
RTVSPost2010Prop56
140
1.0
102
RTVSPost2010PropOp56
 70
     1
102
RTVSPost2010Prop57
140
1.0
102
RTVSPost2010PropOp57
 70
     1
  0
XRECORD
  5
463
102
{ACAD_REACTORS
330
462
102
}
330
462
100
AcDbXrecord
280
     1
102
RTVSPost2010Prop28
280
     0
102
RTVSPost2010PropOp28
 70
     0
102
RTVSPost2010Prop29
280
     1
102
RTVSPost2010PropOp29
 70
     0
102
RTVSPost2010Prop30
280
     1
102
RTVSPost2010PropOp30
 70
     0
102
RTVSPost2010Prop31
280
     0
102
RTVSPost2010PropOp31
 70
     0
102
RTVSPost2010Prop32
280
     0
102
RTVSPost2010PropOp32
 70
     0
102
RTVSPost2010Prop33
280
     0
102
RTVSPost2010PropOp33
 70
     0
102
RTVSPost2010Prop34
280
     0
102
RTVSPost2010PropOp34
 70
     0
102
RTVSPost2010Prop35
280
     0
102
RTVSPost2010PropOp35
 70
     0
102
RTVSPost2010Prop36
280
     0
102
RTVSPost2010PropOp36
 70
     0
102
RTVSPost2010Prop37
 90
       50
102
RTVSPost2010PropOp37
 70
     0
102
RTVSPost2010Prop38
140
0.0
102
RTVSPost2010PropOp38
 70
     0
102
RTVSPost2010Prop39
140
1.0
102
RTVSPost2010PropOp39
 70
     0
102
RTVSPost2010Prop40
 90
        0
102
RTVSPost2010PropOp40
 70
     0
102
RTVSPost2010Prop41ColorIndex
 90
       18
102
RTVSPost2010Prop41ColorRGB
 90
        0
102
RTVSPost2010PropOp41
 70
     0
102
RTVSPost2010Prop42
 90
       50
102
RTVSPost2010PropOp42
 70
     0
102
RTVSPost2010Prop43
 90
        3
102
RTVSPost2010PropOp43
 70
     0
102
RTVSPost2010Prop44ColorIndex
 90
        5
102
RTVSPost2010Prop44ColorRGB
 90
      255
102
RTVSPost2010PropOp44
 70
     0
102
RTVSPost2010Prop45
280
     0
102
RTVSPost2010PropOp45
 70
     0
102
RTVSPost2010Prop46
 90
       50
102
RTVSPost2010PropOp46
 70
     0
102
RTVSPost2010Prop47
 90
       50
102
RTVSPost2010PropOp47
 70
     0
102
RTVSPost2010Prop48
 90
       50
102
RTVSPost2010PropOp48
 70
     0
102
RTVSPost2010Prop49
280
     0
102
RTVSPost2010PropOp49
 70
     0
102
RTVSPost2010Prop50
 90
       50
102
RTVSPost2010PropOp50
 70
     0
102
RTVSPost2010Prop51ColorIndex
 90
      256
102
RTVSPost2010Prop51ColorRGB
 90
-16777216
102
RTVSPost2010PropOp51
 70
     0
102
RTVSPost2010Prop52
140
1.0
102
RTVSPost2010PropOp52
 70
     0
102
RTVSPost2010Prop53
 90
        2
102
RTVSPost2010PropOp53
 70
     0
102
RTVSPost2010Prop54
  1
strokes_ogs.tif
102
RTVSPost2010PropOp54
 70
     0
102
RTVSPost2010Prop55
280
     0
102
RTVSPost2010PropOp55
 70
     0
102
RTVSPost2010Prop56
140
1.0
102
RTVSPost2010PropOp56
 70
     0
102
RTVSPost2010Prop57
140
1.0
102
RTVSPost2010PropOp57
 70
     0
  0
XRECORD
  5
451
102
{ACAD_REACTORS
330
450
102
}
330
450
100
AcDbXrecord
280
     1
102
RTVSPost2010Prop28
280
     0
102
RTVSPost2010PropOp28
 70
     1
102
RTVSPost2010Prop29
280
     1
102
RTVSPost2010PropOp29
 70
     1
102
RTVSPost2010Prop30
280
     1
102
RTVSPost2010PropOp30
 70
     1
102
RTVSPost2010Prop31
280
     0
102
RTVSPost2010PropOp31
 70
     1
102
RTVSPost2010Prop32
280
     0
102
RTVSPost2010PropOp32
 70
     1
102
RTVSPost2010Prop33
280
     0
102
RTVSPost2010PropOp33
 70
     1
102
RTVSPost2010Prop34
280
     0
102
RTVSPost2010PropOp34
 70
     1
102
RTVSPost2010Prop35
280
     0
102
RTVSPost2010PropOp35
 70
     1
102
RTVSPost2010Prop36
280
     0
102
RTVSPost2010PropOp36
 70
     1
102
RTVSPost2010Prop37
 90
       50
102
RTVSPost2010PropOp37
 70
     1
102
RTVSPost2010Prop38
140
0.0
102
RTVSPost2010PropOp38
 70
     1
102
RTVSPost2010Prop39
140
1.0
102
RTVSPost2010PropOp39
 70
     1
102
RTVSPost2010Prop40
 90
        0
102
RTVSPost2010PropOp40
 70
     1
102
RTVSPost2010Prop41ColorIndex
 90
       18
102
RTVSPost2010Prop41ColorRGB
 90
        0
102
RTVSPost2010PropOp41
 70
     1
102
RTVSPost2010Prop42
 90
       50
102
RTVSPost2010PropOp42
 70
     1
102
RTVSPost2010Prop43
 90
        3
102
RTVSPost2010PropOp43
 70
     1
102
RTVSPost2010Prop44ColorIndex
 90
        5
102
RTVSPost2010Prop44ColorRGB
 90
      255
102
RTVSPost2010PropOp44
 70
     1
102
RTVSPost2010Prop45
280
     0
102
RTVSPost2010PropOp45
 70
     1
102
RTVSPost2010Prop46
 90
       50
102
RTVSPost2010PropOp46
 70
     1
102
RTVSPost2010Prop47
 90
       50
102
RTVSPost2010PropOp47
 70
     1
102
RTVSPost2010Prop48
 90
       50
102
RTVSPost2010PropOp48
 70
     1
102
RTVSPost2010Prop49
280
     0
102
RTVSPost2010PropOp49
 70
     1
102
RTVSPost2010Prop50
 90
       50
102
RTVSPost2010PropOp50
 70
     1
102
RTVSPost2010Prop51ColorIndex
 90
      256
102
RTVSPost2010Prop51ColorRGB
 90
-16777216
102
RTVSPost2010PropOp51
 70
     0
102
RTVSPost2010Prop52
140
1.0
102
RTVSPost2010PropOp52
 70
     0
102
RTVSPost2010Prop53
 90
        2
102
RTVSPost2010PropOp53
 70
     1
102
RTVSPost2010Prop54
  1
strokes_ogs.tif
102
RTVSPost2010PropOp54
 70
     1
102
RTVSPost2010Prop55
280
     0
102
RTVSPost2010PropOp55
 70
     1
102
RTVSPost2010Prop56
140
1.0
102
RTVSPost2010PropOp56
 70
     1
102
RTVSPost2010Prop57
140
1.0
102
RTVSPost2010PropOp57
 70
     1
  0
XRECORD
  5
46F
102
{ACAD_REACTORS
330
46E
102
}
330
46E
100
AcDbXrecord
280
     1
102
RTVSPost2010Prop28
280
     0
102
RTVSPost2010PropOp28
 70
     1
102
RTVSPost2010Prop29
280
     1
102
RTVSPost2010PropOp29
 70
     1
102
RTVSPost2010Prop30
280
     1
102
RTVSPost2010PropOp30
 70
     1
102
RTVSPost2010Prop31
280
     0
102
RTVSPost2010PropOp31
 70
     1
102
RTVSPost2010Prop32
280
     0
102
RTVSPost2010PropOp32
 70
     1
102
RTVSPost2010Prop33
280
     0
102
RTVSPost2010PropOp33
 70
     1
102
RTVSPost2010Prop34
280
     0
102
RTVSPost2010PropOp34
 70
     1
102
RTVSPost2010Prop35
280
     0
102
RTVSPost2010PropOp35
 70
     1
102
RTVSPost2010Prop36
280
     0
102
RTVSPost2010PropOp36
 70
     1
102
RTVSPost2010Prop37
 90
       50
102
RTVSPost2010PropOp37
 70
     1
102
RTVSPost2010Prop38
140
0.0
102
RTVSPost2010PropOp38
 70
     1
102
RTVSPost2010Prop39
140
1.0
102
RTVSPost2010PropOp39
 70
     1
102
RTVSPost2010Prop40
 90
        0
102
RTVSPost2010PropOp40
 70
     1
102
RTVSPost2010Prop41ColorIndex
 90
       18
102
RTVSPost2010Prop41ColorRGB
 90
        0
102
RTVSPost2010PropOp41
 70
     1
102
RTVSPost2010Prop42
 90
       50
102
RTVSPost2010PropOp42
 70
     1
102
RTVSPost2010Prop43
 90
        3
102
RTVSPost2010PropOp43
 70
     1
102
RTVSPost2010Prop44ColorIndex
 90
        5
102
RTVSPost2010Prop44ColorRGB
 90
      255
102
RTVSPost2010PropOp44
 70
     1
102
RTVSPost2010Prop45
280
     0
102
RTVSPost2010PropOp45
 70
     1
102
RTVSPost2010Prop46
 90
       50
102
RTVSPost2010PropOp46
 70
     1
102
RTVSPost2010Prop47
 90
       50
102
RTVSPost2010PropOp47
 70
     1
102
RTVSPost2010Prop48
 90
       50
102
RTVSPost2010PropOp48
 70
     1
102
RTVSPost2010Prop49
280
     0
102
RTVSPost2010PropOp49
 70
     1
102
RTVSPost2010Prop50
 90
       50
102
RTVSPost2010PropOp50
 70
     1
102
RTVSPost2010Prop51ColorIndex
 90
      256
102
RTVSPost2010Prop51ColorRGB
 90
-16777216
102
RTVSPost2010PropOp51
 70
     0
102
RTVSPost2010Prop52
140
1.0
102
RTVSPost2010PropOp52
 70
     0
102
RTVSPost2010Prop53
 90
        2
102
RTVSPost2010PropOp53
 70
     1
102
RTVSPost2010Prop54
  1
strokes_ogs.tif
102
RTVSPost2010PropOp54
 70
     1
102
RTVSPost2010Prop55
280
     0
102
RTVSPost2010PropOp55
 70
     1
102
RTVSPost2010Prop56
140
1.0
102
RTVSPost2010PropOp56
 70
     1
102
RTVSPost2010Prop57
140
1.0
102
RTVSPost2010PropOp57
 70
     1
  0
XRECORD
  5
46D
102
{ACAD_REACTORS
330
46C
102
}
330
46C
100
AcDbXrecord
280
     1
102
RTVSPost2010Prop28
280
     0
102
RTVSPost2010PropOp28
 70
     1
102
RTVSPost2010Prop29
280
     1
102
RTVSPost2010PropOp29
 70
     1
102
RTVSPost2010Prop30
280
     1
102
RTVSPost2010PropOp30
 70
     1
102
RTVSPost2010Prop31
280
     0
102
RTVSPost2010PropOp31
 70
     1
102
RTVSPost2010Prop32
280
     0
102
RTVSPost2010PropOp32
 70
     1
102
RTVSPost2010Prop33
280
     0
102
RTVSPost2010PropOp33
 70
     1
102
RTVSPost2010Prop34
280
     0
102
RTVSPost2010PropOp34
 70
     1
102
RTVSPost2010Prop35
280
     0
102
RTVSPost2010PropOp35
 70
     1
102
RTVSPost2010Prop36
280
     0
102
RTVSPost2010PropOp36
 70
     1
102
RTVSPost2010Prop37
 90
       50
102
RTVSPost2010PropOp37
 70
     1
102
RTVSPost2010Prop38
140
0.0
102
RTVSPost2010PropOp38
 70
     1
102
RTVSPost2010Prop39
140
1.0
102
RTVSPost2010PropOp39
 70
     1
102
RTVSPost2010Prop40
 90
        0
102
RTVSPost2010PropOp40
 70
     1
102
RTVSPost2010Prop41ColorIndex
 90
       18
102
RTVSPost2010Prop41ColorRGB
 90
        0
102
RTVSPost2010PropOp41
 70
     1
102
RTVSPost2010Prop42
 90
       50
102
RTVSPost2010PropOp42
 70
     1
102
RTVSPost2010Prop43
 90
        3
102
RTVSPost2010PropOp43
 70
     1
102
RTVSPost2010Prop44ColorIndex
 90
        5
102
RTVSPost2010Prop44ColorRGB
 90
      255
102
RTVSPost2010PropOp44
 70
     1
102
RTVSPost2010Prop45
280
     0
102
RTVSPost2010PropOp45
 70
     1
102
RTVSPost2010Prop46
 90
       50
102
RTVSPost2010PropOp46
 70
     1
102
RTVSPost2010Prop47
 90
       50
102
RTVSPost2010PropOp47
 70
     1
102
RTVSPost2010Prop48
 90
       50
102
RTVSPost2010PropOp48
 70
     1
102
RTVSPost2010Prop49
280
     0
102
RTVSPost2010PropOp49
 70
     1
102
RTVSPost2010Prop50
 90
       50
102
RTVSPost2010PropOp50
 70
     1
102
RTVSPost2010Prop51ColorIndex
 90
      256
102
RTVSPost2010Prop51ColorRGB
 90
-16777216
102
RTVSPost2010PropOp51
 70
     0
102
RTVSPost2010Prop52
140
1.0
102
RTVSPost2010PropOp52
 70
     0
102
RTVSPost2010Prop53
 90
        2
102
RTVSPost2010PropOp53
 70
     1
102
RTVSPost2010Prop54
  1
strokes_ogs.tif
102
RTVSPost2010PropOp54
 70
     1
102
RTVSPost2010Prop55
280
     0
102
RTVSPost2010PropOp55
 70
     1
102
RTVSPost2010Prop56
140
1.0
102
RTVSPost2010PropOp56
 70
     1
102
RTVSPost2010Prop57
140
1.0
102
RTVSPost2010PropOp57
 70
     1
  0
XRECORD
  5
467
102
{ACAD_REACTORS
330
466
102
}
330
466
100
AcDbXrecord
280
     1
102
RTVSPost2010Prop28
280
     0
102
RTVSPost2010PropOp28
 70
     1
102
RTVSPost2010Prop29
280
     1
102
RTVSPost2010PropOp29
 70
     1
102
RTVSPost2010Prop30
280
     1
102
RTVSPost2010PropOp30
 70
     1
102
RTVSPost2010Prop31
280
     0
102
RTVSPost2010PropOp31
 70
     1
102
RTVSPost2010Prop32
280
     0
102
RTVSPost2010PropOp32
 70
     1
102
RTVSPost2010Prop33
280
     0
102
RTVSPost2010PropOp33
 70
     1
102
RTVSPost2010Prop34
280
     0
102
RTVSPost2010PropOp34
 70
     1
102
RTVSPost2010Prop35
280
     0
102
RTVSPost2010PropOp35
 70
     1
102
RTVSPost2010Prop36
280
     0
102
RTVSPost2010PropOp36
 70
     1
102
RTVSPost2010Prop37
 90
       50
102
RTVSPost2010PropOp37
 70
     1
102
RTVSPost2010Prop38
140
0.0
102
RTVSPost2010PropOp38
 70
     1
102
RTVSPost2010Prop39
140
1.0
102
RTVSPost2010PropOp39
 70
     1
102
RTVSPost2010Prop40
 90
        0
102
RTVSPost2010PropOp40
 70
     1
102
RTVSPost2010Prop41ColorIndex
 90
       18
102
RTVSPost2010Prop41ColorRGB
 90
        0
102
RTVSPost2010PropOp41
 70
     1
102
RTVSPost2010Prop42
 90
       50
102
RTVSPost2010PropOp42
 70
     1
102
RTVSPost2010Prop43
 90
        3
102
RTVSPost2010PropOp43
 70
     1
102
RTVSPost2010Prop44ColorIndex
 90
        5
102
RTVSPost2010Prop44ColorRGB
 90
      255
102
RTVSPost2010PropOp44
 70
     1
102
RTVSPost2010Prop45
280
     0
102
RTVSPost2010PropOp45
 70
     1
102
RTVSPost2010Prop46
 90
       50
102
RTVSPost2010PropOp46
 70
     1
102
RTVSPost2010Prop47
 90
       50
102
RTVSPost2010PropOp47
 70
     1
102
RTVSPost2010Prop48
 90
       50
102
RTVSPost2010PropOp48
 70
     1
102
RTVSPost2010Prop49
280
     0
102
RTVSPost2010PropOp49
 70
     1
102
RTVSPost2010Prop50
 90
       50
102
RTVSPost2010PropOp50
 70
     1
102
RTVSPost2010Prop51ColorIndex
 90
      256
102
RTVSPost2010Prop51ColorRGB
 90
-16777216
102
RTVSPost2010PropOp51
 70
     0
102
RTVSPost2010Prop52
140
1.0
102
RTVSPost2010PropOp52
 70
     0
102
RTVSPost2010Prop53
 90
        2
102
RTVSPost2010PropOp53
 70
     1
102
RTVSPost2010Prop54
  1
strokes_ogs.tif
102
RTVSPost2010PropOp54
 70
     1
102
RTVSPost2010Prop55
280
     0
102
RTVSPost2010PropOp55
 70
     1
102
RTVSPost2010Prop56
140
1.0
102
RTVSPost2010PropOp56
 70
     1
102
RTVSPost2010Prop57
140
1.0
102
RTVSPost2010PropOp57
 70
     1
  0
XRECORD
  5
469
102
{ACAD_REACTORS
330
468
102
}
330
468
100
AcDbXrecord
280
     1
102
RTVSPost2010Prop28
280
     0
102
RTVSPost2010PropOp28
 70
     1
102
RTVSPost2010Prop29
280
     1
102
RTVSPost2010PropOp29
 70
     1
102
RTVSPost2010Prop30
280
     1
102
RTVSPost2010PropOp30
 70
     1
102
RTVSPost2010Prop31
280
     0
102
RTVSPost2010PropOp31
 70
     1
102
RTVSPost2010Prop32
280
     0
102
RTVSPost2010PropOp32
 70
     1
102
RTVSPost2010Prop33
280
     0
102
RTVSPost2010PropOp33
 70
     1
102
RTVSPost2010Prop34
280
     0
102
RTVSPost2010PropOp34
 70
     1
102
RTVSPost2010Prop35
280
     0
102
RTVSPost2010PropOp35
 70
     1
102
RTVSPost2010Prop36
280
     0
102
RTVSPost2010PropOp36
 70
     1
102
RTVSPost2010Prop37
 90
       50
102
RTVSPost2010PropOp37
 70
     1
102
RTVSPost2010Prop38
140
0.0
102
RTVSPost2010PropOp38
 70
     1
102
RTVSPost2010Prop39
140
1.0
102
RTVSPost2010PropOp39
 70
     1
102
RTVSPost2010Prop40
 90
        0
102
RTVSPost2010PropOp40
 70
     1
102
RTVSPost2010Prop41ColorIndex
 90
       18
102
RTVSPost2010Prop41ColorRGB
 90
        0
102
RTVSPost2010PropOp41
 70
     1
102
RTVSPost2010Prop42
 90
       50
102
RTVSPost2010PropOp42
 70
     1
102
RTVSPost2010Prop43
 90
        3
102
RTVSPost2010PropOp43
 70
     1
102
RTVSPost2010Prop44ColorIndex
 90
        5
102
RTVSPost2010Prop44ColorRGB
 90
      255
102
RTVSPost2010PropOp44
 70
     1
102
RTVSPost2010Prop45
280
     0
102
RTVSPost2010PropOp45
 70
     1
102
RTVSPost2010Prop46
 90
       50
102
RTVSPost2010PropOp46
 70
     1
102
RTVSPost2010Prop47
 90
       50
102
RTVSPost2010PropOp47
 70
     1
102
RTVSPost2010Prop48
 90
       50
102
RTVSPost2010PropOp48
 70
     1
102
RTVSPost2010Prop49
280
     0
102
RTVSPost2010PropOp49
 70
     1
102
RTVSPost2010Prop50
 90
       50
102
RTVSPost2010PropOp50
 70
     1
102
RTVSPost2010Prop51ColorIndex
 90
      256
102
RTVSPost2010Prop51ColorRGB
 90
-16777216
102
RTVSPost2010PropOp51
 70
     0
102
RTVSPost2010Prop52
140
1.0
102
RTVSPost2010PropOp52
 70
     0
102
RTVSPost2010Prop53
 90
        2
102
RTVSPost2010PropOp53
 70
     1
102
RTVSPost2010Prop54
  1
strokes_ogs.tif
102
RTVSPost2010PropOp54
 70
     1
102
RTVSPost2010Prop55
280
     0
102
RTVSPost2010PropOp55
 70
     1
102
RTVSPost2010Prop56
140
1.0
102
RTVSPost2010PropOp56
 70
     1
102
RTVSPost2010Prop57
140
1.0
102
RTVSPost2010PropOp57
 70
     1
  0
XRECORD
  5
459
102
{ACAD_REACTORS
330
458
102
}
330
458
100
AcDbXrecord
280
     1
102
RTVSPost2010Prop28
280
     0
102
RTVSPost2010PropOp28
 70
     1
102
RTVSPost2010Prop29
280
     1
102
RTVSPost2010PropOp29
 70
     1
102
RTVSPost2010Prop30
280
     1
102
RTVSPost2010PropOp30
 70
     1
102
RTVSPost2010Prop31
280
     0
102
RTVSPost2010PropOp31
 70
     1
102
RTVSPost2010Prop32
280
     0
102
RTVSPost2010PropOp32
 70
     1
102
RTVSPost2010Prop33
280
     0
102
RTVSPost2010PropOp33
 70
     1
102
RTVSPost2010Prop34
280
     0
102
RTVSPost2010PropOp34
 70
     1
102
RTVSPost2010Prop35
280
     0
102
RTVSPost2010PropOp35
 70
     1
102
RTVSPost2010Prop36
280
     0
102
RTVSPost2010PropOp36
 70
     1
102
RTVSPost2010Prop37
 90
       50
102
RTVSPost2010PropOp37
 70
     1
102
RTVSPost2010Prop38
140
0.0
102
RTVSPost2010PropOp38
 70
     1
102
RTVSPost2010Prop39
140
1.0
102
RTVSPost2010PropOp39
 70
     1
102
RTVSPost2010Prop40
 90
        0
102
RTVSPost2010PropOp40
 70
     1
102
RTVSPost2010Prop41ColorIndex
 90
       18
102
RTVSPost2010Prop41ColorRGB
 90
        0
102
RTVSPost2010PropOp41
 70
     1
102
RTVSPost2010Prop42
 90
       50
102
RTVSPost2010PropOp42
 70
     1
102
RTVSPost2010Prop43
 90
        3
102
RTVSPost2010PropOp43
 70
     1
102
RTVSPost2010Prop44ColorIndex
 90
        5
102
RTVSPost2010Prop44ColorRGB
 90
      255
102
RTVSPost2010PropOp44
 70
     1
102
RTVSPost2010Prop45
280
     0
102
RTVSPost2010PropOp45
 70
     1
102
RTVSPost2010Prop46
 90
       50
102
RTVSPost2010PropOp46
 70
     1
102
RTVSPost2010Prop47
 90
       50
102
RTVSPost2010PropOp47
 70
     1
102
RTVSPost2010Prop48
 90
       50
102
RTVSPost2010PropOp48
 70
     1
102
RTVSPost2010Prop49
280
     0
102
RTVSPost2010PropOp49
 70
     1
102
RTVSPost2010Prop50
 90
       50
102
RTVSPost2010PropOp50
 70
     1
102
RTVSPost2010Prop51ColorIndex
 90
      256
102
RTVSPost2010Prop51ColorRGB
 90
-16777216
102
RTVSPost2010PropOp51
 70
     0
102
RTVSPost2010Prop52
140
1.0
102
RTVSPost2010PropOp52
 70
     0
102
RTVSPost2010Prop53
 90
        2
102
RTVSPost2010PropOp53
 70
     1
102
RTVSPost2010Prop54
  1
strokes_ogs.tif
102
RTVSPost2010PropOp54
 70
     1
102
RTVSPost2010Prop55
280
     0
102
RTVSPost2010PropOp55
 70
     1
102
RTVSPost2010Prop56
140
1.0
102
RTVSPost2010PropOp56
 70
     1
102
RTVSPost2010Prop57
140
1.0
102
RTVSPost2010PropOp57
 70
     1
  0
XRECORD
  5
44B
102
{ACAD_REACTORS
330
44A
102
}
330
44A
100
AcDbXrecord
280
     1
102
RTVSPost2010Prop28
280
     0
102
RTVSPost2010PropOp28
 70
     1
102
RTVSPost2010Prop29
280
     1
102
RTVSPost2010PropOp29
 70
     1
102
RTVSPost2010Prop30
280
     1
102
RTVSPost2010PropOp30
 70
     1
102
RTVSPost2010Prop31
280
     0
102
RTVSPost2010PropOp31
 70
     1
102
RTVSPost2010Prop32
280
     0
102
RTVSPost2010PropOp32
 70
     1
102
RTVSPost2010Prop33
280
     0
102
RTVSPost2010PropOp33
 70
     1
102
RTVSPost2010Prop34
280
     0
102
RTVSPost2010PropOp34
 70
     1
102
RTVSPost2010Prop35
280
     0
102
RTVSPost2010PropOp35
 70
     1
102
RTVSPost2010Prop36
280
     0
102
RTVSPost2010PropOp36
 70
     1
102
RTVSPost2010Prop37
 90
       50
102
RTVSPost2010PropOp37
 70
     1
102
RTVSPost2010Prop38
140
0.0
102
RTVSPost2010PropOp38
 70
     1
102
RTVSPost2010Prop39
140
1.0
102
RTVSPost2010PropOp39
 70
     1
102
RTVSPost2010Prop40
 90
        0
102
RTVSPost2010PropOp40
 70
     1
102
RTVSPost2010Prop41ColorIndex
 90
       18
102
RTVSPost2010Prop41ColorRGB
 90
        0
102
RTVSPost2010PropOp41
 70
     1
102
RTVSPost2010Prop42
 90
       50
102
RTVSPost2010PropOp42
 70
     1
102
RTVSPost2010Prop43
 90
        3
102
RTVSPost2010PropOp43
 70
     1
102
RTVSPost2010Prop44ColorIndex
 90
        5
102
RTVSPost2010Prop44ColorRGB
 90
      255
102
RTVSPost2010PropOp44
 70
     1
102
RTVSPost2010Prop45
280
     0
102
RTVSPost2010PropOp45
 70
     1
102
RTVSPost2010Prop46
 90
       50
102
RTVSPost2010PropOp46
 70
     1
102
RTVSPost2010Prop47
 90
       50
102
RTVSPost2010PropOp47
 70
     1
102
RTVSPost2010Prop48
 90
       50
102
RTVSPost2010PropOp48
 70
     1
102
RTVSPost2010Prop49
280
     0
102
RTVSPost2010PropOp49
 70
     1
102
RTVSPost2010Prop50
 90
       50
102
RTVSPost2010PropOp50
 70
     1
102
RTVSPost2010Prop51ColorIndex
 90
      256
102
RTVSPost2010Prop51ColorRGB
 90
-16777216
102
RTVSPost2010PropOp51
 70
     0
102
RTVSPost2010Prop52
140
1.0
102
RTVSPost2010PropOp52
 70
     0
102
RTVSPost2010Prop53
 90
        2
102
RTVSPost2010PropOp53
 70
     1
102
RTVSPost2010Prop54
  1
strokes_ogs.tif
102
RTVSPost2010PropOp54
 70
     1
102
RTVSPost2010Prop55
280
     0
102
RTVSPost2010PropOp55
 70
     1
102
RTVSPost2010Prop56
140
1.0
102
RTVSPost2010PropOp56
 70
     1
102
RTVSPost2010Prop57
140
1.0
102
RTVSPost2010PropOp57
 70
     1
  0
XRECORD
  5
46B
102
{ACAD_REACTORS
330
46A
102
}
330
46A
100
AcDbXrecord
280
     1
102
RTVSPost2010Prop28
280
     0
102
RTVSPost2010PropOp28
 70
     1
102
RTVSPost2010Prop29
280
     1
102
RTVSPost2010PropOp29
 70
     1
102
RTVSPost2010Prop30
280
     1
102
RTVSPost2010PropOp30
 70
     1
102
RTVSPost2010Prop31
280
     0
102
RTVSPost2010PropOp31
 70
     1
102
RTVSPost2010Prop32
280
     0
102
RTVSPost2010PropOp32
 70
     1
102
RTVSPost2010Prop33
280
     0
102
RTVSPost2010PropOp33
 70
     1
102
RTVSPost2010Prop34
280
     0
102
RTVSPost2010PropOp34
 70
     1
102
RTVSPost2010Prop35
280
     0
102
RTVSPost2010PropOp35
 70
     1
102
RTVSPost2010Prop36
280
     0
102
RTVSPost2010PropOp36
 70
     1
102
RTVSPost2010Prop37
 90
       50
102
RTVSPost2010PropOp37
 70
     1
102
RTVSPost2010Prop38
140
0.0
102
RTVSPost2010PropOp38
 70
     1
102
RTVSPost2010Prop39
140
1.0
102
RTVSPost2010PropOp39
 70
     1
102
RTVSPost2010Prop40
 90
        0
102
RTVSPost2010PropOp40
 70
     1
102
RTVSPost2010Prop41ColorIndex
 90
       18
102
RTVSPost2010Prop41ColorRGB
 90
        0
102
RTVSPost2010PropOp41
 70
     1
102
RTVSPost2010Prop42
 90
       50
102
RTVSPost2010PropOp42
 70
     1
102
RTVSPost2010Prop43
 90
        3
102
RTVSPost2010PropOp43
 70
     1
102
RTVSPost2010Prop44ColorIndex
 90
        5
102
RTVSPost2010Prop44ColorRGB
 90
      255
102
RTVSPost2010PropOp44
 70
     1
102
RTVSPost2010Prop45
280
     0
102
RTVSPost2010PropOp45
 70
     1
102
RTVSPost2010Prop46
 90
       50
102
RTVSPost2010PropOp46
 70
     1
102
RTVSPost2010Prop47
 90
       50
102
RTVSPost2010PropOp47
 70
     1
102
RTVSPost2010Prop48
 90
       50
102
RTVSPost2010PropOp48
 70
     1
102
RTVSPost2010Prop49
280
     0
102
RTVSPost2010PropOp49
 70
     1
102
RTVSPost2010Prop50
 90
       50
102
RTVSPost2010PropOp50
 70
     1
102
RTVSPost2010Prop51ColorIndex
 90
      256
102
RTVSPost2010Prop51ColorRGB
 90
-16777216
102
RTVSPost2010PropOp51
 70
     0
102
RTVSPost2010Prop52
140
1.0
102
RTVSPost2010PropOp52
 70
     0
102
RTVSPost2010Prop53
 90
        2
102
RTVSPost2010PropOp53
 70
     1
102
RTVSPost2010Prop54
  1
strokes_ogs.tif
102
RTVSPost2010PropOp54
 70
     1
102
RTVSPost2010Prop55
280
     0
102
RTVSPost2010PropOp55
 70
     1
102
RTVSPost2010Prop56
140
1.0
102
RTVSPost2010PropOp56
 70
     1
102
RTVSPost2010Prop57
140
1.0
102
RTVSPost2010PropOp57
 70
     1
  0
ENDSEC
  0
EOF
