  0
SECTION
  2
HEADER
  9
$ACADVER
  1
AC1015
  9
$ACADMAINTVER
 70
     6
  9
$DWGCODEPAGE
  3
ANSI_932
  9
$INSBASE
 10
0.0
 20
0.0
 30
0.0
  9
$EXTMIN
 10
-1182.0
 20
-810.7684599628672
 30
0.0
  9
$EXTMAX
 10
1182.0
 20
810.7684599628672
 30
0.0
  9
$LIMMIN
 10
-420.0
 20
-297.0
  9
$LIMMAX
 10
420.0
 20
297.0
  9
$ORTHOMODE
 70
     0
  9
$REGENMODE
 70
     1
  9
$FILLMODE
 70
     1
  9
$QTEXTMODE
 70
     0
  9
$MIRRTEXT
 70
     1
  9
$LTSCALE
 40
0.5
  9
$ATTMODE
 70
     1
  9
$TEXTSIZE
 40
0.2
  9
$TRACEWID
 40
0.05
  9
$TEXTSTYLE
  7
Standard
  9
$CLAYER
  8
0
  9
$CELTYPE
  6
ByLayer
  9
$CECOLOR
 62
   256
  9
$CELTSCALE
 40
1.0
  9
$DISPSILH
 70
     0
  9
$DIMSCALE
 40
1.0
  9
$DIMASZ
 40
6.000003814697266
  9
$DIMEXO
 40
1.0
  9
$DIMDLI
 40
10.0
  9
$DIMRND
 40
0.0
  9
$DIMDLE
 40
0.0
  9
$DIMEXE
 40
1.0
  9
$DIMTP
 40
0.0
  9
$DIMTM
 40
0.0
  9
$DIMTXT
 40
8.0
  9
$DIMCEN
 40
0.0
  9
$DIMTSZ
 40
0.0
  9
$DIMTOL
 70
     0
  9
$DIMLIM
 70
     0
  9
$DIMTIH
 70
     0
  9
$DIMTOH
 70
     0
  9
$DIMSE1
 70
     0
  9
$DIMSE2
 70
     0
  9
$DIMTAD
 70
     1
  9
$DIMZIN
 70
     8
  9
$DIMBLK
  1

  9
$DIMASO
 70
     1
  9
$DIMSHO
 70
     1
  9
$DIMPOST
  1

  9
$DIMAPOST
  1

  9
$DIMALT
 70
     0
  9
$DIMALTD
 70
     2
  9
$DIMALTF
 40
0.0393700787401575
  9
$DIMLFAC
 40
1.0
  9
$DIMTOFL
 70
     0
  9
$DIMTVP
 40
0.0
  9
$DIMTIX
 70
     0
  9
$DIMSOXD
 70
     0
  9
$DIMSAH
 70
     0
  9
$DIMBLK1
  1

  9
$DIMBLK2
  1

  9
$DIMSTYLE
  2
Standard
  9
$DIMCLRD
 70
     0
  9
$DIMCLRE
 70
     0
  9
$DIMCLRT
 70
     0
  9
$DIMTFAC
 40
0.65
  9
$DIMGAP
 40
0.09
  9
$DIMJUST
 70
     0
  9
$DIMSD1
 70
     0
  9
$DIMSD2
 70
     0
  9
$DIMTOLJ
 70
     0
  9
$DIMTZIN
 70
     0
  9
$DIMALTZ
 70
     0
  9
$DIMALTTZ
 70
     0
  9
$DIMUPT
 70
     0
  9
$DIMDEC
 70
     8
  9
$DIMTDEC
 70
     8
  9
$DIMALTU
 70
     2
  9
$DIMALTTD
 70
     8
  9
$DIMTXSTY
  7
Standard
  9
$DIMAUNIT
 70
     0
  9
$DIMADEC
 70
     8
  9
$DIMALTRND
 40
0.0
  9
$DIMAZIN
 70
     2
  9
$DIMDSEP
 70
    46
  9
$DIMATFIT
 70
     3
  9
$DIMFRAC
 70
     0
  9
$DIMLDRBLK
  1

  9
$DIMLUNIT
 70
     2
  9
$DIMLWD
 70
    -2
  9
$DIMLWE
 70
    -2
  9
$DIMTMOVE
 70
     0
  9
$LUNITS
 70
     2
  9
$LUPREC
 70
     4
  9
$SKETCHINC
 40
0.1
  9
$FILLETRAD
 40
0.5
  9
$AUNITS
 70
     0
  9
$AUPREC
 70
     0
  9
$MENU
  1
.
  9
$ELEVATION
 40
0.0
  9
$PELEVATION
 40
0.0
  9
$THICKNESS
 40
0.0
  9
$LIMCHECK
 70
     0
  9
$CHAMFERA
 40
0.0
  9
$CHAMFERB
 40
0.0
  9
$CHAMFERC
 40
0.0
  9
$CHAMFERD
 40
0.0
  9
$SKPOLY
 70
     0
  9
$TDCREATE
 40
2458456.560858275
  9
$TDUCREATE
 40
2458456.185858275
  9
$TDUPDATE
 40
2458456.560858796
  9
$TDUUPDATE
 40
2458456.185858796
  9
$TDINDWG
 40
0.0000000116
  9
$TDUSRTIMER
 40
0.0000000116
  9
$USRTIMER
 70
     1
  9
$ANGBASE
 50
0.0
  9
$ANGDIR
 70
     0
  9
$PDMODE
 70
     0
  9
$PDSIZE
 40
1.0
  9
$PLINEWID
 40
0.0
  9
$SPLFRAME
 70
     0
  9
$SPLINETYPE
 70
     6
  9
$SPLINESEGS
 70
     8
  9
$HANDSEED
  5
41A
  9
$SURFTAB1
 70
     6
  9
$SURFTAB2
 70
     6
  9
$SURFTYPE
 70
     6
  9
$SURFU
 70
     6
  9
$SURFV
 70
     6
  9
$UCSBASE
  2

  9
$UCSNAME
  2

  9
$UCSORG
 10
0.0
 20
0.0
 30
0.0
  9
$UCSXDIR
 10
1.0
 20
0.0
 30
0.0
  9
$UCSYDIR
 10
0.0
 20
1.0
 30
0.0
  9
$UCSORTHOREF
  2

  9
$UCSORTHOVIEW
 70
     0
  9
$UCSORGTOP
 10
0.0
 20
0.0
 30
0.0
  9
$UCSORGBOTTOM
 10
0.0
 20
0.0
 30
0.0
  9
$UCSORGLEFT
 10
0.0
 20
0.0
 30
0.0
  9
$UCSORGRIGHT
 10
0.0
 20
0.0
 30
0.0
  9
$UCSORGFRONT
 10
0.0
 20
0.0
 30
0.0
  9
$UCSORGBACK
 10
0.0
 20
0.0
 30
0.0
  9
$PUCSBASE
  2

  9
$PUCSNAME
  2

  9
$PUCSORG
 10
0.0
 20
0.0
 30
0.0
  9
$PUCSXDIR
 10
1.0
 20
0.0
 30
0.0
  9
$PUCSYDIR
 10
0.0
 20
1.0
 30
0.0
  9
$PUCSORTHOREF
  2

  9
$PUCSORTHOVIEW
 70
     0
  9
$PUCSORGTOP
 10
0.0
 20
0.0
 30
0.0
  9
$PUCSORGBOTTOM
 10
0.0
 20
0.0
 30
0.0
  9
$PUCSORGLEFT
 10
0.0
 20
0.0
 30
0.0
  9
$PUCSORGRIGHT
 10
0.0
 20
0.0
 30
0.0
  9
$PUCSORGFRONT
 10
0.0
 20
0.0
 30
0.0
  9
$PUCSORGBACK
 10
0.0
 20
0.0
 30
0.0
  9
$USERI1
 70
     0
  9
$USERI2
 70
     0
  9
$USERI3
 70
     0
  9
$USERI4
 70
     0
  9
$USERI5
 70
     0
  9
$USERR1
 40
0.0
  9
$USERR2
 40
0.0
  9
$USERR3
 40
0.0
  9
$USERR4
 40
0.0
  9
$USERR5
 40
0.0
  9
$WORLDVIEW
 70
     1
  9
$SHADEDGE
 70
     3
  9
$SHADEDIF
 70
    70
  9
$TILEMODE
 70
     1
  9
$MAXACTVP
 70
    64
  9
$PINSBASE
 10
0.0
 20
0.0
 30
0.0
  9
$PLIMCHECK
 70
     0
  9
$PEXTMIN
 10
1.000000000000000E+20
 20
1.000000000000000E+20
 30
1.000000000000000E+20
  9
$PEXTMAX
 10
-1.000000000000000E+20
 20
-1.000000000000000E+20
 30
-1.000000000000000E+20
  9
$PLIMMIN
 10
0.0
 20
0.0
  9
$PLIMMAX
 10
12.0
 20
9.0
  9
$UNITMODE
 70
     0
  9
$VISRETAIN
 70
     0
  9
$PLINEGEN
 70
     1
  9
$PSLTSCALE
 70
     0
  9
$TREEDEPTH
 70
  3020
  9
$CMLSTYLE
  2
Standard
  9
$CMLJUST
 70
     0
  9
$CMLSCALE
 40
1.0
  9
$PROXYGRAPHICS
 70
     0
  9
$MEASUREMENT
 70
     1
  9
$CELWEIGHT
370
    -1
  9
$ENDCAPS
280
     0
  9
$JOINSTYLE
280
     0
  9
$LWDISPLAY
290
     1
  9
$INSUNITS
 70
     4
  9
$HYPERLINKBASE
  1

  9
$STYLESHEET
  1

  9
$XEDIT
290
     1
  9
$CEPSNTYPE
380
     0
  9
$PSTYLEMODE
290
     1
  9
$FINGERPRINTGUID
  2
{5FA907DE-DD0A-458D-82AE-2B1166F63CC0}
  9
$VERSIONGUID
  2
{FAEB1C32-E019-11D5-929B-00C0DF256EC4}
  9
$EXTNAMES
290
     1
  9
$PSVPSCALE
 40
0.0
  9
$OLESTARTUP
290
     0
  0
ENDSEC
  0
SECTION
  2
CLASSES
  0
CLASS
  1
ACDBDICTIONARYWDFLT
  2
AcDbDictionaryWithDefault
  3
ObjectDBX Classes
 90
        0
280
     0
281
     0
  0
CLASS
  1
VISUALSTYLE
  2
AcDbVisualStyle
  3
ObjectDBX Classes
 90
     4095
280
     0
281
     0
  0
CLASS
  1
MATERIAL
  2
AcDbMaterial
  3
ObjectDBX Classes
 90
     1153
280
     0
281
     0
  0
CLASS
  1
SCALE
  2
AcDbScale
  3
ObjectDBX Classes
 90
     1153
280
     0
281
     0
  0
CLASS
  1
SUN
  2
AcDbSun
  3
SCENEOE
 90
     1153
280
     0
281
     0
  0
CLASS
  1
DICTIONARYVAR
  2
AcDbDictionaryVar
  3
ObjectDBX Classes
 90
        0
280
     0
281
     0
  0
CLASS
  1
ACDBPLACEHOLDER
  2
AcDbPlaceHolder
  3
ObjectDBX Classes
 90
        0
280
     0
281
     0
  0
CLASS
  1
LAYOUT
  2
AcDbLayout
  3
ObjectDBX Classes
 90
        0
280
     0
281
     0
  0
ENDSEC
  0
SECTION
  2
TABLES
  0
TABLE
  2
VPORT
  5
8
102
{ACAD_XDICTIONARY
360
3E0
102
}
330
0
100
AcDbSymbolTable
 70
     1
  0
VPORT
  5
29
330
8
100
AcDbSymbolTableRecord
100
AcDbViewportTableRecord
  2
*Active
 70
     0
 10
0.0
 20
0.0
 11
1.0
 21
1.0
 12
0.0
 22
0.0
 13
0.0
 23
0.0
 14
0.5
 24
0.5
 15
0.5
 25
0.5
 16
0.0
 26
0.0
 36
1.0
 17
-0.0000000000000036
 27
0.0
 37
0.0
 40
551.3225527747496
 41
1.457876148825689
 42
50.0
 43
0.0
 44
0.0
 50
0.0
 51
0.0
 71
     0
 72
  1000
 73
     1
 74
     1
 75
     0
 76
     0
 77
     0
 78
     0
281
     0
 65
     1
110
0.0
120
0.0
130
0.0
111
1.0
121
0.0
131
0.0
112
0.0
122
1.0
132
0.0
 79
     0
146
0.0
  0
ENDTAB
  0
TABLE
  2
LTYPE
  5
5
330
0
100
AcDbSymbolTable
 70
    67
  0
LTYPE
  5
14
330
5
100
AcDbSymbolTableRecord
100
AcDbLinetypeTableRecord
  2
ByBlock
 70
     0
  3

 72
    65
 73
     0
 40
0.0
  0
LTYPE
  5
15
330
5
100
AcDbSymbolTableRecord
100
AcDbLinetypeTableRecord
  2
ByLayer
 70
     0
  3

 72
    65
 73
     0
 40
0.0
  0
LTYPE
  5
16
330
5
100
AcDbSymbolTableRecord
100
AcDbLinetypeTableRecord
  2
Continuous
 70
     0
  3
Solid line
 72
    65
 73
     0
 40
0.0
  0
LTYPE
  5
6B
330
5
100
AcDbSymbolTableRecord
100
AcDbLinetypeTableRecord
  2
HIDDENX2
 70
     0
  3
Hidden (2x) ____ ____ ____ ____ ____ ____ ____ 
 72
    65
 73
     2
 40
19.05
 49
12.7
 74
     0
 49
-6.35
 74
     0
  0
LTYPE
  5
6C
330
5
100
AcDbSymbolTableRecord
100
AcDbLinetypeTableRecord
  2
HIDDEN
 70
     0
  3
Hidden __ __ __ __ __ __ __ __ __ __ __ __ __ __
 72
    65
 73
     2
 40
9.524999999999999
 49
6.35
 74
     0
 49
-3.175
 74
     0
  0
LTYPE
  5
6D
330
5
100
AcDbSymbolTableRecord
100
AcDbLinetypeTableRecord
  2
HIDDEN2
 70
     0
  3
Hidden (.5x) _ _ _ _ _ _ _ _ _ _ _ _ _ _ _ _ _ 
 72
    65
 73
     2
 40
4.762499999999999
 49
3.175
 74
     0
 49
-1.5875
 74
     0
  0
LTYPE
  5
6E
330
5
100
AcDbSymbolTableRecord
100
AcDbLinetypeTableRecord
  2
DASHED
 70
     0
  3
Dashed __ __ __ __ __ __ __ __ __ __ __ __ __ _
 72
    65
 73
     2
 40
19.05
 49
12.7
 74
     0
 49
-6.35
 74
     0
  0
LTYPE
  5
6F
330
5
100
AcDbSymbolTableRecord
100
AcDbLinetypeTableRecord
  2
DASHED2
 70
     0
  3
Dashed (.5x) _ _ _ _ _ _ _ _ _ _ _ _ _ _ _ _ _ 
 72
    65
 73
     2
 40
9.524999999999999
 49
6.35
 74
     0
 49
-3.175
 74
     0
  0
LTYPE
  5
70
330
5
100
AcDbSymbolTableRecord
100
AcDbLinetypeTableRecord
  2
DASHEDX2
 70
     0
  3
Dashed (2x) ____  ____  ____  ____  ____  ___
 72
    65
 73
     2
 40
38.09999999999999
 49
25.4
 74
     0
 49
-12.7
 74
     0
  0
LTYPE
  5
71
330
5
100
AcDbSymbolTableRecord
100
AcDbLinetypeTableRecord
  2
DOTX2
 70
     0
  3
Dot (2x) .  .  .  .  .  .  .  .  .  .  .  .  .  .
 72
    65
 73
     2
 40
12.7
 49
0.0
 74
     0
 49
-12.7
 74
     0
  0
LTYPE
  5
72
330
5
100
AcDbSymbolTableRecord
100
AcDbLinetypeTableRecord
  2
DOT
 70
     0
  3
Dot . . . . . . . . . . . . . . . . . . . . . . . .
 72
    65
 73
     2
 40
6.35
 49
0.0
 74
     0
 49
-6.35
 74
     0
  0
LTYPE
  5
73
330
5
100
AcDbSymbolTableRecord
100
AcDbLinetypeTableRecord
  2
DOT2
 70
     0
  3
Dot (.5x) ........................................
 72
    65
 73
     2
 40
3.175
 49
0.0
 74
     0
 49
-3.175
 74
     0
  0
LTYPE
  5
74
330
5
100
AcDbSymbolTableRecord
100
AcDbLinetypeTableRecord
  2
CENTERX2
 70
     0
  3
Center (2x) ________  __  ________  __  _____
 72
    65
 73
     4
 40
101.6
 49
63.5
 74
     0
 49
-12.7
 74
     0
 49
12.7
 74
     0
 49
-12.7
 74
     0
  0
LTYPE
  5
75
330
5
100
AcDbSymbolTableRecord
100
AcDbLinetypeTableRecord
  2
CENTER
 70
     0
  3
Center ____ _ ____ _ ____ _ ____ _ ____ _ ____
 72
    65
 73
     4
 40
50.8
 49
31.75
 74
     0
 49
-6.35
 74
     0
 49
6.35
 74
     0
 49
-6.35
 74
     0
  0
LTYPE
  5
76
330
5
100
AcDbSymbolTableRecord
100
AcDbLinetypeTableRecord
  2
CENTER2
 70
     0
  3
Center (.5x) ___ _ ___ _ ___ _ ___ _ ___ _ ___
 72
    65
 73
     4
 40
28.575
 49
19.05
 74
     0
 49
-3.175
 74
     0
 49
3.175
 74
     0
 49
-3.175
 74
     0
  0
LTYPE
  5
77
330
5
100
AcDbSymbolTableRecord
100
AcDbLinetypeTableRecord
  2
DASHDOTX2
 70
     0
  3
Dash dot (2x) ____  .  ____  .  ____  .  ___
 72
    65
 73
     4
 40
50.8
 49
25.4
 74
     0
 49
-12.7
 74
     0
 49
0.0
 74
     0
 49
-12.7
 74
     0
  0
LTYPE
  5
78
330
5
100
AcDbSymbolTableRecord
100
AcDbLinetypeTableRecord
  2
DASHDOT
 70
     0
  3
Dash dot __ . __ . __ . __ . __ . __ . __ . __
 72
    65
 73
     4
 40
25.4
 49
12.7
 74
     0
 49
-6.35
 74
     0
 49
0.0
 74
     0
 49
-6.35
 74
     0
  0
LTYPE
  5
79
330
5
100
AcDbSymbolTableRecord
100
AcDbLinetypeTableRecord
  2
DASHDOT2
 70
     0
  3
Dash dot (.5x) _._._._._._._._._._._._._._._.
 72
    65
 73
     4
 40
12.7
 49
6.35
 74
     0
 49
-3.175
 74
     0
 49
0.0
 74
     0
 49
-3.175
 74
     0
  0
LTYPE
  5
7A
330
5
100
AcDbSymbolTableRecord
100
AcDbLinetypeTableRecord
  2
DIVIDEX2
 70
     0
  3
Divide (2x) ________  .  .  ________  .  .  _
 72
    65
 73
     6
 40
63.5
 49
25.4
 74
     0
 49
-12.7
 74
     0
 49
0.0
 74
     0
 49
-12.7
 74
     0
 49
0.0
 74
     0
 49
-12.7
 74
     0
  0
LTYPE
  5
7B
330
5
100
AcDbSymbolTableRecord
100
AcDbLinetypeTableRecord
  2
DIVIDE
 70
     0
  3
Divide ____ . . ____ . . ____ . . ____ . . ____
 72
    65
 73
     6
 40
31.75
 49
12.7
 74
     0
 49
-6.35
 74
     0
 49
0.0
 74
     0
 49
-6.35
 74
     0
 49
0.0
 74
     0
 49
-6.35
 74
     0
  0
LTYPE
  5
7C
330
5
100
AcDbSymbolTableRecord
100
AcDbLinetypeTableRecord
  2
DIVIDE2
 70
     0
  3
Divide (.5x) __..__..__..__..__..__..__..__.._
 72
    65
 73
     6
 40
15.875
 49
6.35
 74
     0
 49
-3.175
 74
     0
 49
0.0
 74
     0
 49
-3.175
 74
     0
 49
0.0
 74
     0
 49
-3.175
 74
     0
  0
LTYPE
  5
7D
330
5
100
AcDbSymbolTableRecord
100
AcDbLinetypeTableRecord
  2
BORDERX2
 70
     0
  3
Border (2x) ____  ____  .  ____  ____  .  ___
 72
    65
 73
     6
 40
88.89999999999999
 49
25.4
 74
     0
 49
-12.7
 74
     0
 49
25.4
 74
     0
 49
-12.7
 74
     0
 49
0.0
 74
     0
 49
-12.7
 74
     0
  0
LTYPE
  5
7E
330
5
100
AcDbSymbolTableRecord
100
AcDbLinetypeTableRecord
  2
BORDER
 70
     0
  3
Border __ __ . __ __ . __ __ . __ __ . __ __ .
 72
    65
 73
     6
 40
44.45
 49
12.7
 74
     0
 49
-6.35
 74
     0
 49
12.7
 74
     0
 49
-6.35
 74
     0
 49
0.0
 74
     0
 49
-6.35
 74
     0
  0
LTYPE
  5
7F
330
5
100
AcDbSymbolTableRecord
100
AcDbLinetypeTableRecord
  2
BORDER2
 70
     0
  3
Border (.5x) __.__.__.__.__.__.__.__.__.__.__.
 72
    65
 73
     6
 40
22.225
 49
6.35
 74
     0
 49
-3.175
 74
     0
 49
6.35
 74
     0
 49
-3.175
 74
     0
 49
0.0
 74
     0
 49
-3.175
 74
     0
  0
LTYPE
  5
80
330
5
100
AcDbSymbolTableRecord
100
AcDbLinetypeTableRecord
  2
PHANTOMX2
 70
     0
  3
Phantom (2x) ____________    ____    ____   _
 72
    65
 73
     6
 40
127.0
 49
63.5
 74
     0
 49
-12.7
 74
     0
 49
12.7
 74
     0
 49
-12.7
 74
     0
 49
12.7
 74
     0
 49
-12.7
 74
     0
  0
LTYPE
  5
81
330
5
100
AcDbSymbolTableRecord
100
AcDbLinetypeTableRecord
  2
PHANTOM
 70
     0
  3
Phantom ______  __  __  ______  __  __  ______ 
 72
    65
 73
     6
 40
63.5
 49
31.75
 74
     0
 49
-6.35
 74
     0
 49
6.35
 74
     0
 49
-6.35
 74
     0
 49
6.35
 74
     0
 49
-6.35
 74
     0
  0
LTYPE
  5
82
330
5
100
AcDbSymbolTableRecord
100
AcDbLinetypeTableRecord
  2
PHANTOM2
 70
     0
  3
Phantom (.5x) ___ _ _ ___ _ _ ___ _ _ ___ _ _
 72
    65
 73
     6
 40
31.75
 49
15.875
 74
     0
 49
-3.175
 74
     0
 49
3.175
 74
     0
 49
-3.175
 74
     0
 49
3.175
 74
     0
 49
-3.175
 74
     0
  0
LTYPE
  5
83
330
5
100
AcDbSymbolTableRecord
100
AcDbLinetypeTableRecord
  2
ACAD_ISO06W100
 70
     0
  3
ISO long-dash triple-dot ____ ... ____ ... ____
 72
    65
 73
     8
 40
36.0
 49
24.0
 74
     0
 49
-3.0
 74
     0
 49
0.0
 74
     0
 49
-3.0
 74
     0
 49
0.0
 74
     0
 49
-3.0
 74
     0
 49
0.0
 74
     0
 49
-3.0
 74
     0
  0
LTYPE
  5
84
330
5
100
AcDbSymbolTableRecord
100
AcDbLinetypeTableRecord
  2
ACAD_ISO13W100
 70
     0
  3
ISO double-dash double-dot __ __ . . __ __ . . _
 72
    65
 73
     8
 40
36.0
 49
12.0
 74
     0
 49
-3.0
 74
     0
 49
12.0
 74
     0
 49
-3.0
 74
     0
 49
0.0
 74
     0
 49
-3.0
 74
     0
 49
0.0
 74
     0
 49
-3.0
 74
     0
  0
LTYPE
  5
85
330
5
100
AcDbSymbolTableRecord
100
AcDbLinetypeTableRecord
  2
ACAD_ISO14W100
 70
     0
  3
ISO dash triple-dot __ . . . __ . . . __ . . . _
 72
    65
 73
     8
 40
24.0
 49
12.0
 74
     0
 49
-3.0
 74
     0
 49
0.0
 74
     0
 49
-3.0
 74
     0
 49
0.0
 74
     0
 49
-3.0
 74
     0
 49
0.0
 74
     0
 49
-3.0
 74
     0
  0
LTYPE
  5
86
330
5
100
AcDbSymbolTableRecord
100
AcDbLinetypeTableRecord
  2
ACAD_ISO02W100
 70
     0
  3
ISO dash __ __ __ __ __ __ __ __ __ __ __ __ __
 72
    65
 73
     2
 40
15.0
 49
12.0
 74
     0
 49
-3.0
 74
     0
  0
LTYPE
  5
87
330
5
100
AcDbSymbolTableRecord
100
AcDbLinetypeTableRecord
  2
ACAD_ISO03W100
 70
     0
  3
ISO dash space __    __    __    __    __    __
 72
    65
 73
     2
 40
30.0
 49
12.0
 74
     0
 49
-18.0
 74
     0
  0
LTYPE
  5
88
330
5
100
AcDbSymbolTableRecord
100
AcDbLinetypeTableRecord
  2
ACAD_ISO04W100
 70
     0
  3
ISO long-dash dot ____ . ____ . ____ . ____ . _
 72
    65
 73
     4
 40
30.0
 49
24.0
 74
     0
 49
-3.0
 74
     0
 49
0.0
 74
     0
 49
-3.0
 74
     0
  0
LTYPE
  5
89
330
5
100
AcDbSymbolTableRecord
100
AcDbLinetypeTableRecord
  2
ACAD_ISO05W100
 70
     0
  3
ISO long-dash double-dot ____ .. ____ .. ____ . 
 72
    65
 73
     6
 40
33.0
 49
24.0
 74
     0
 49
-3.0
 74
     0
 49
0.0
 74
     0
 49
-3.0
 74
     0
 49
0.0
 74
     0
 49
-3.0
 74
     0
  0
LTYPE
  5
8A
330
5
100
AcDbSymbolTableRecord
100
AcDbLinetypeTableRecord
  2
ACAD_ISO07W100
 70
     0
  3
ISO dot . . . . . . . . . . . . . . . . . . . . 
 72
    65
 73
     2
 40
3.0
 49
0.0
 74
     0
 49
-3.0
 74
     0
  0
LTYPE
  5
8B
330
5
100
AcDbSymbolTableRecord
100
AcDbLinetypeTableRecord
  2
ACAD_ISO08W100
 70
     0
  3
ISO long-dash short-dash ____ __ ____ __ ____ _
 72
    65
 73
     4
 40
36.0
 49
24.0
 74
     0
 49
-3.0
 74
     0
 49
6.0
 74
     0
 49
-3.0
 74
     0
  0
LTYPE
  5
8C
330
5
100
AcDbSymbolTableRecord
100
AcDbLinetypeTableRecord
  2
ACAD_ISO09W100
 70
     0
  3
ISO long-dash double-short-dash ____ __ __ ____
 72
    65
 73
     6
 40
45.0
 49
24.0
 74
     0
 49
-3.0
 74
     0
 49
6.0
 74
     0
 49
-3.0
 74
     0
 49
6.0
 74
     0
 49
-3.0
 74
     0
  0
LTYPE
  5
8D
330
5
100
AcDbSymbolTableRecord
100
AcDbLinetypeTableRecord
  2
ACAD_ISO10W100
 70
     0
  3
ISO dash dot __ . __ . __ . __ . __ . __ . __ . 
 72
    65
 73
     4
 40
18.0
 49
12.0
 74
     0
 49
-3.0
 74
     0
 49
0.0
 74
     0
 49
-3.0
 74
     0
  0
LTYPE
  5
8E
330
5
100
AcDbSymbolTableRecord
100
AcDbLinetypeTableRecord
  2
ACAD_ISO11W100
 70
     0
  3
ISO double-dash dot __ __ . __ __ . __ __ . __ _
 72
    65
 73
     6
 40
33.0
 49
12.0
 74
     0
 49
-3.0
 74
     0
 49
12.0
 74
     0
 49
-3.0
 74
     0
 49
0.0
 74
     0
 49
-3.0
 74
     0
  0
LTYPE
  5
8F
330
5
100
AcDbSymbolTableRecord
100
AcDbLinetypeTableRecord
  2
ACAD_ISO12W100
 70
     0
  3
ISO dash double-dot __ . . __ . . __ . . __ . . 
 72
    65
 73
     6
 40
21.0
 49
12.0
 74
     0
 49
-3.0
 74
     0
 49
0.0
 74
     0
 49
-3.0
 74
     0
 49
0.0
 74
     0
 49
-3.0
 74
     0
  0
LTYPE
  5
90
330
5
100
AcDbSymbolTableRecord
100
AcDbLinetypeTableRecord
  2
ACAD_ISO15W100
 70
     0
  3
ISO double-dash triple-dot __ __ . . . __ __ . .
 72
    65
 73
    10
 40
39.0
 49
12.0
 74
     0
 49
-3.0
 74
     0
 49
12.0
 74
     0
 49
-3.0
 74
     0
 49
0.0
 74
     0
 49
-3.0
 74
     0
 49
0.0
 74
     0
 49
-3.0
 74
     0
 49
0.0
 74
     0
 49
-3.0
 74
     0
  0
LTYPE
  5
91
330
5
100
AcDbSymbolTableRecord
100
AcDbLinetypeTableRecord
  2
JIS_02_0.7
 70
     0
  3
HIDDEN0.75 _ _ _ _ _ _ _ _ _ _ _ _ _ _ _ _ _ 
 72
    65
 73
     2
 40
1.35
 49
0.75
 74
     0
 49
-0.6
 74
     0
  0
LTYPE
  5
92
330
5
100
AcDbSymbolTableRecord
100
AcDbLinetypeTableRecord
  2
JIS_02_1.0
 70
     0
  3
HIDDEN01 _ _ _ _ _ _ _ _ _ _ _ _ _ _ _ _ _ 
 72
    65
 73
     2
 40
2.0
 49
1.0
 74
     0
 49
-1.0
 74
     0
  0
LTYPE
  5
93
330
5
100
AcDbSymbolTableRecord
100
AcDbLinetypeTableRecord
  2
JIS_02_1.2
 70
     0
  3
HIDDEN01.25  _ _ _ _ _ _ _ _ _ _ _ _ _ _ _ _ _ 
 72
    65
 73
     2
 40
2.5
 49
1.25
 74
     0
 49
-1.25
 74
     0
  0
LTYPE
  5
94
330
5
100
AcDbSymbolTableRecord
100
AcDbLinetypeTableRecord
  2
JIS_02_2.0
 70
     0
  3
HIDDEN02 __ __ __ __ __ __ __ __ __ __ __ 
 72
    65
 73
     2
 40
3.0
 49
2.0
 74
     0
 49
-1.0
 74
     0
  0
LTYPE
  5
95
330
5
100
AcDbSymbolTableRecord
100
AcDbLinetypeTableRecord
  2
JIS_02_4.0
 70
     0
  3
HIDDEN04 ____ ____ ____ ____ ____ ____ ____ 
 72
    65
 73
     2
 40
5.5
 49
4.0
 74
     0
 49
-1.5
 74
     0
  0
LTYPE
  5
96
330
5
100
AcDbSymbolTableRecord
100
AcDbLinetypeTableRecord
  2
JIS_08_11
 70
     0
  3
1SASEN11 ___ _ ___ _ ___ _ ___ _ ___ _ ___
 72
    65
 73
     4
 40
12.8
 49
11.0
 74
     0
 49
-0.6
 74
     0
 49
0.6
 74
     0
 49
-0.6
 74
     0
  0
LTYPE
  5
97
330
5
100
AcDbSymbolTableRecord
100
AcDbLinetypeTableRecord
  2
JIS_08_15
 70
     0
  3
1SASEN15 ____ _ ____ _ ____ _ ____ _ ____ 
 72
    65
 73
     4
 40
17.25
 49
15.0
 74
     0
 49
-0.75
 74
     0
 49
0.75
 74
     0
 49
-0.75
 74
     0
  0
LTYPE
  5
98
330
5
100
AcDbSymbolTableRecord
100
AcDbLinetypeTableRecord
  2
JIS_08_25
 70
     0
  3
1SASEN25 ________  __  ________  __  _____
 72
    65
 73
     4
 40
28.0
 49
25.0
 74
     0
 49
-1.125
 74
     0
 49
0.75
 74
     0
 49
-1.125
 74
     0
  0
LTYPE
  5
99
330
5
100
AcDbSymbolTableRecord
100
AcDbLinetypeTableRecord
  2
JIS_08_37
 70
     0
  3
1SASEN37 ________  __  ________  __  _____
 72
    65
 73
     4
 40
40.5
 49
37.5
 74
     0
 49
-1.125
 74
     0
 49
0.75
 74
     0
 49
-1.125
 74
     0
  0
LTYPE
  5
9A
330
5
100
AcDbSymbolTableRecord
100
AcDbLinetypeTableRecord
  2
JIS_08_50
 70
     0
  3
1SASEN50 _______________  __  ____________
 72
    65
 73
     4
 40
53.0
 49
50.0
 74
     0
 49
-1.125
 74
     0
 49
0.75
 74
     0
 49
-1.125
 74
     0
  0
LTYPE
  5
9B
330
5
100
AcDbSymbolTableRecord
100
AcDbLinetypeTableRecord
  2
JIS_09_08
 70
     0
  3
2SASEN8 __ _ _ __ _ _ __ _ _ __ _ _ __ _ _ 
 72
    65
 73
     6
 40
10.75
 49
8.0
 74
     0
 49
-0.55
 74
     0
 49
0.55
 74
     0
 49
-0.55
 74
     0
 49
0.55
 74
     0
 49
-0.55
 74
     0
  0
LTYPE
  5
9C
330
5
100
AcDbSymbolTableRecord
100
AcDbLinetypeTableRecord
  2
JIS_09_15
 70
     0
  3
2SASEN15 ___ _ _ ___ _ _ ___ _ _ ___ _ _ ___ 
 72
    65
 73
     6
 40
18.9
 49
15.0
 74
     0
 49
-0.9
 74
     0
 49
0.6
 74
     0
 49
-0.9
 74
     0
 49
0.6
 74
     0
 49
-0.9
 74
     0
  0
LTYPE
  5
9D
330
5
100
AcDbSymbolTableRecord
100
AcDbLinetypeTableRecord
  2
JIS_09_29
 70
     0
  3
2SASEN29 ______　__  __  ______　__  __  ___
 72
    65
 73
     6
 40
34.0
 49
29.0
 74
     0
 49
-1.2
 74
     0
 49
0.7
 74
     0
 49
-1.2
 74
     0
 49
0.7
 74
     0
 49
-1.2
 74
     0
  0
LTYPE
  5
9E
330
5
100
AcDbSymbolTableRecord
100
AcDbLinetypeTableRecord
  2
JIS_09_50
 70
     0
  3
2SASEN50 ____________　__  __  _____________
 72
    65
 73
     6
 40
55.0
 49
50.0
 74
     0
 49
-1.2
 74
     0
 49
0.7
 74
     0
 49
-1.2
 74
     0
 49
0.7
 74
     0
 49
-1.2
 74
     0
  0
LTYPE
  5
9F
330
5
100
AcDbSymbolTableRecord
100
AcDbLinetypeTableRecord
  2
SXF_破線
 70
     0
  3
02 dashed -- -- -- -- -- --
 72
    65
 73
     2
 40
7.5
 49
6.0
 74
     0
 49
-1.5
 74
     0
  0
LTYPE
  5
A0
330
5
100
AcDbSymbolTableRecord
100
AcDbLinetypeTableRecord
  2
SXF_跳び破線
 70
     0
  3
03 dashed_spaced --  --  --  --
 72
    65
 73
     2
 40
12.0
 49
6.0
 74
     0
 49
-6.0
 74
     0
  0
LTYPE
  5
A1
330
5
100
AcDbSymbolTableRecord
100
AcDbLinetypeTableRecord
  2
SXF_一点長鎖線
 70
     0
  3
04 long_dashed_dotted ---- . ---- . ----
 72
    65
 73
     4
 40
15.25
 49
12.0
 74
     0
 49
-1.5
 74
     0
 49
0.25
 74
     0
 49
-1.5
 74
     0
  0
LTYPE
  5
A2
330
5
100
AcDbSymbolTableRecord
100
AcDbLinetypeTableRecord
  2
SXF_二点長鎖線
 70
     0
  3
05 long_dashed_double-dotted ---- . . ---- 
 72
    65
 73
     6
 40
17.0
 49
12.0
 74
     0
 49
-1.5
 74
     0
 49
0.25
 74
     0
 49
-1.5
 74
     0
 49
0.25
 74
     0
 49
-1.5
 74
     0
  0
LTYPE
  5
A3
330
5
100
AcDbSymbolTableRecord
100
AcDbLinetypeTableRecord
  2
SXF_三点長鎖線
 70
     0
  3
06 long_dashed_triplicate-dotted ---- ... ---- 
 72
    65
 73
     8
 40
18.75
 49
12.0
 74
     0
 49
-1.5
 74
     0
 49
0.25
 74
     0
 49
-1.5
 74
     0
 49
0.25
 74
     0
 49
-1.5
 74
     0
 49
0.25
 74
     0
 49
-1.5
 74
     0
  0
LTYPE
  5
A4
330
5
100
AcDbSymbolTableRecord
100
AcDbLinetypeTableRecord
  2
SXF_点線
 70
     0
  3
07 dotted . . . . . . . . . . . . 
 72
    65
 73
     2
 40
1.75
 49
0.25
 74
     0
 49
-1.5
 74
     0
  0
LTYPE
  5
A5
330
5
100
AcDbSymbolTableRecord
100
AcDbLinetypeTableRecord
  2
SXF_一点鎖線
 70
     0
  3
08 chain ---- - --- - --- - ---
 72
    65
 73
     4
 40
18.5
 49
12.0
 74
     0
 49
-1.5
 74
     0
 49
3.5
 74
     0
 49
-1.5
 74
     0
  0
LTYPE
  5
A6
330
5
100
AcDbSymbolTableRecord
100
AcDbLinetypeTableRecord
  2
SXF_二点鎖線
 70
     0
  3
09 chain_double_dash ---- - - ---- - - ----
 72
    65
 73
     6
 40
23.5
 49
12.0
 74
     0
 49
-1.5
 74
     0
 49
3.5
 74
     0
 49
-1.5
 74
     0
 49
3.5
 74
     0
 49
-1.5
 74
     0
  0
LTYPE
  5
A7
330
5
100
AcDbSymbolTableRecord
100
AcDbLinetypeTableRecord
  2
SXF_一点短鎖線
 70
     0
  3
10 dashed_dotted -- . -- . -- . --
 72
    65
 73
     4
 40
9.25
 49
6.0
 74
     0
 49
-1.5
 74
     0
 49
0.25
 74
     0
 49
-1.5
 74
     0
  0
LTYPE
  5
A8
330
5
100
AcDbSymbolTableRecord
100
AcDbLinetypeTableRecord
  2
SXF_一点二短鎖線
 70
     0
  3
11 double-dashed_dotted -- -- . -- --
 72
    65
 73
     6
 40
16.75
 49
6.0
 74
     0
 49
-1.5
 74
     0
 49
6.0
 74
     0
 49
-1.5
 74
     0
 49
0.25
 74
     0
 49
-1.5
 74
     0
  0
LTYPE
  5
A9
330
5
100
AcDbSymbolTableRecord
100
AcDbLinetypeTableRecord
  2
SXF_二点短鎖線
 70
     0
  3
12 dashed_double_dotted -- . . -- . . --
 72
    65
 73
     6
 40
11.0
 49
6.0
 74
     0
 49
-1.5
 74
     0
 49
0.25
 74
     0
 49
-1.5
 74
     0
 49
0.25
 74
     0
 49
-1.5
 74
     0
  0
LTYPE
  5
AA
330
5
100
AcDbSymbolTableRecord
100
AcDbLinetypeTableRecord
  2
SXF_二点二短鎖線
 70
     0
  3
13 double-dashed_double-dotted -- -- . . -- --
 72
    65
 73
     8
 40
18.5
 49
6.0
 74
     0
 49
-1.5
 74
     0
 49
6.0
 74
     0
 49
-1.5
 74
     0
 49
0.25
 74
     0
 49
-1.5
 74
     0
 49
0.25
 74
     0
 49
-1.5
 74
     0
  0
LTYPE
  5
AB
330
5
100
AcDbSymbolTableRecord
100
AcDbLinetypeTableRecord
  2
SXF_三点短鎖線
 70
     0
  3
14 dashed triplicate-dotted -- . . . -- . . . --
 72
    65
 73
     8
 40
12.75
 49
6.0
 74
     0
 49
-1.5
 74
     0
 49
0.25
 74
     0
 49
-1.5
 74
     0
 49
0.25
 74
     0
 49
-1.5
 74
     0
 49
0.25
 74
     0
 49
-1.5
 74
     0
  0
LTYPE
  5
AC
330
5
100
AcDbSymbolTableRecord
100
AcDbLinetypeTableRecord
  2
SXF_三点二短鎖線
 70
     0
  3
15 double-dashed triplicate-dotted -- -- . . . -- -- 
 72
    65
 73
    10
 40
20.25
 49
6.0
 74
     0
 49
-1.5
 74
     0
 49
6.0
 74
     0
 49
-1.5
 74
     0
 49
0.25
 74
     0
 49
-1.5
 74
     0
 49
0.25
 74
     0
 49
-1.5
 74
     0
 49
0.25
 74
     0
 49
-1.5
 74
     0
  0
ENDTAB
  0
TABLE
  2
LAYER
  5
2
330
0
100
AcDbSymbolTable
 70
    12
  0
LAYER
  5
10
330
2
100
AcDbSymbolTableRecord
100
AcDbLayerTableRecord
  2
0
 70
     0
 62
     7
  6
Continuous
370
    -3
390
F
  0
LAYER
  5
AD
330
2
100
AcDbSymbolTableRecord
100
AcDbLayerTableRecord
  2
2
 70
     0
 62
     7
  6
Continuous
370
    -3
390
F
  0
LAYER
  5
AE
330
2
100
AcDbSymbolTableRecord
100
AcDbLayerTableRecord
  2
3
 70
     0
 62
     7
  6
Continuous
370
    -3
390
F
  0
LAYER
  5
AF
330
2
100
AcDbSymbolTableRecord
100
AcDbLayerTableRecord
  2
4
 70
     0
 62
     7
  6
Continuous
370
    -3
390
F
  0
LAYER
  5
B0
330
2
100
AcDbSymbolTableRecord
100
AcDbLayerTableRecord
  2
5
 70
     0
 62
     7
  6
Continuous
370
    -3
390
F
  0
LAYER
  5
B1
330
2
100
AcDbSymbolTableRecord
100
AcDbLayerTableRecord
  2
6
 70
     0
 62
     7
  6
Continuous
370
    -3
390
F
  0
LAYER
  5
B2
330
2
100
AcDbSymbolTableRecord
100
AcDbLayerTableRecord
  2
7
 70
     0
 62
     7
  6
Continuous
370
    -3
390
F
  0
LAYER
  5
B3
330
2
100
AcDbSymbolTableRecord
100
AcDbLayerTableRecord
  2
8
 70
     0
 62
     7
  6
Continuous
370
    -3
390
F
  0
LAYER
  5
B4
330
2
100
AcDbSymbolTableRecord
100
AcDbLayerTableRecord
  2
9
 70
     0
 62
     7
  6
Continuous
370
    -3
390
F
  0
LAYER
  5
B5
330
2
100
AcDbSymbolTableRecord
100
AcDbLayerTableRecord
  2
10
 70
     0
 62
     7
  6
Continuous
370
    -3
390
F
  0
LAYER
  5
B6
330
2
100
AcDbSymbolTableRecord
100
AcDbLayerTableRecord
  2
11
 70
     0
 62
     7
  6
Continuous
370
    -3
390
F
  0
LAYER
  5
B7
330
2
100
AcDbSymbolTableRecord
100
AcDbLayerTableRecord
  2
ZUWAKU
 70
     0
 62
     7
  6
Continuous
370
    -3
390
F
  0
ENDTAB
  0
TABLE
  2
STYLE
  5
3
330
0
100
AcDbSymbolTable
 70
     3
  0
STYLE
  5
11
330
3
100
AcDbSymbolTableRecord
100
AcDbTextStyleTableRecord
  2
Standard
 70
     0
 40
0.0
 41
1.0
 50
0.0
 71
     0
 42
0.2
  3
txt.shx
  4
bigfont.shx
  0
STYLE
  5
D7
330
3
100
AcDbSymbolTableRecord
100
AcDbTextStyleTableRecord
  2
dcStyle1
 70
     0
 40
0.0
 41
1.2
 50
0.0
 71
     0
 42
0.2
  3
txt.shx
  4
bigfont
  0
STYLE
  5
FB
330
3
100
AcDbSymbolTableRecord
100
AcDbTextStyleTableRecord
  2
dcStyle0
 70
     0
 40
0.0
 41
1.0
 50
0.0
 71
     0
 42
0.2
  3
ＭＳ Ｐゴシック
  4

1001
ACAD
1000
ＭＳ Ｐゴシック
1071
    32802
  0
ENDTAB
  0
TABLE
  2
VIEW
  5
6
330
0
100
AcDbSymbolTable
 70
     0
  0
ENDTAB
  0
TABLE
  2
UCS
  5
7
330
0
100
AcDbSymbolTable
 70
     0
  0
ENDTAB
  0
TABLE
  2
APPID
  5
9
330
0
100
AcDbSymbolTable
 70
     2
  0
APPID
  5
12
330
9
100
AcDbSymbolTableRecord
100
AcDbRegAppTableRecord
  2
ACAD
 70
     0
  0
APPID
  5
6A
330
9
100
AcDbSymbolTableRecord
100
AcDbRegAppTableRecord
  2
DaFusionOut
 70
     0
  0
ENDTAB
  0
TABLE
  2
DIMSTYLE
  5
A
330
0
100
AcDbSymbolTable
 70
     1
100
AcDbDimStyleTable
  0
DIMSTYLE
105
27
330
A
100
AcDbSymbolTableRecord
100
AcDbDimStyleTableRecord
  2
Standard
 70
     0
178
     0
340
11
  0
ENDTAB
  0
TABLE
  2
BLOCK_RECORD
  5
1
330
0
100
AcDbSymbolTable
 70
     6
  0
BLOCK_RECORD
  5
1F
330
1
100
AcDbSymbolTableRecord
100
AcDbBlockTableRecord
  2
*Model_Space
340
22
  0
BLOCK_RECORD
  5
1B
330
1
100
AcDbSymbolTableRecord
100
AcDbBlockTableRecord
  2
*Paper_Space
340
1E
  0
BLOCK_RECORD
  5
23
330
1
100
AcDbSymbolTableRecord
100
AcDbBlockTableRecord
  2
*Paper_Space0
340
26
  0
BLOCK_RECORD
  5
B9
330
1
100
AcDbSymbolTableRecord
100
AcDbBlockTableRecord
  2
DC_GROUP_W_GSL_S_010_2_1
340
0
102
{BLKREFS
331
110
102
}
  0
BLOCK_RECORD
  5
BC
330
1
100
AcDbSymbolTableRecord
100
AcDbBlockTableRecord
  2
DC_GROUP_W_GSL_S_010_2_2
340
0
102
{BLKREFS
331
111
102
}
  0
BLOCK_RECORD
  5
BF
330
1
100
AcDbSymbolTableRecord
100
AcDbBlockTableRecord
  2
DC_GROUP_W_GSL_S_010_2_3
340
0
102
{BLKREFS
331
3D5
102
}
  0
BLOCK_RECORD
  5
C2
330
1
100
AcDbSymbolTableRecord
100
AcDbBlockTableRecord
  2
DC_GROUP_W_GSL_S_010_2_4
340
0
102
{BLKREFS
331
3D6
102
}
  0
BLOCK_RECORD
  5
23E
330
1
100
AcDbSymbolTableRecord
100
AcDbBlockTableRecord
  2
_OPEN30
340
0
102
{BLKREFS
331
244
331
245
331
247
331
248
331
24A
331
24B
331
24D
331
24E
331
250
331
251
331
253
331
254
331
256
331
257
331
259
331
25A
331
26E
331
270
331
272
331
274
102
}
  0
ENDTAB
  0
ENDSEC
  0
SECTION
  2
BLOCKS
  0
BLOCK
  5
20
330
1F
100
AcDbEntity
  8
0
100
AcDbBlockBegin
  2
*Model_Space
 70
     0
 10
0.0
 20
0.0
 30
0.0
  3
*Model_Space
  1
*Model_Space
  0
ENDBLK
  5
21
330
1F
100
AcDbEntity
  8
0
100
AcDbBlockEnd
  0
BLOCK
  5
1C
330
1B
100
AcDbEntity
 67
     1
  8
0
100
AcDbBlockBegin
  2
*Paper_Space
 70
     0
 10
0.0
 20
0.0
 30
0.0
  3
*Paper_Space
  1
*Paper_Space
  0
ENDBLK
  5
1D
330
1B
100
AcDbEntity
 67
     1
  8
0
100
AcDbBlockEnd
  0
BLOCK
  5
24
330
23
100
AcDbEntity
  8
0
100
AcDbBlockBegin
  2
*Paper_Space0
 70
     0
 10
0.0
 20
0.0
 30
0.0
  3
*Paper_Space0
  1
*Paper_Space0
  0
ENDBLK
  5
25
330
23
100
AcDbEntity
  8
0
100
AcDbBlockEnd
  0
BLOCK
  5
BA
330
B9
100
AcDbEntity
  8
0
100
AcDbBlockBegin
  2
DC_GROUP_W_GSL_S_010_2_1
 70
     0
 10
0.0
 20
0.0
 30
0.0
  3
DC_GROUP_W_GSL_S_010_2_1
  1
DC_GROUP_W_GSL_S_010_2_1
  0
LINE
  5
C5
330
B9
100
AcDbEntity
  8
ZUWAKU
  6
Continuous
 62
     7
370
    13
100
AcDbLine
 10
-394.0
 20
-265.7438466790443
 30
0.0
 11
394.0
 21
-265.7438466790443
 31
0.0
  0
LINE
  5
C6
330
B9
100
AcDbEntity
  8
ZUWAKU
  6
Continuous
 62
     7
370
    13
100
AcDbLine
 10
393.9999999999992
 20
270.2561533209557
 30
0.0
 11
-394.0
 21
270.2561533209557
 31
0.0
  0
LINE
  5
C7
330
B9
100
AcDbEntity
  8
ZUWAKU
  6
Continuous
 62
     7
370
    13
100
AcDbLine
 10
394.0
 20
-265.7438466790443
 30
0.0
 11
393.9999999999992
 21
270.2561533209557
 31
0.0
  0
LINE
  5
C8
330
B9
100
AcDbEntity
  8
ZUWAKU
  6
Continuous
 62
     7
370
    13
100
AcDbLine
 10
-394.0
 20
270.2561533209557
 30
0.0
 11
-394.0
 21
-265.7438466790443
 31
0.0
  0
LINE
  5
C9
330
B9
100
AcDbEntity
  8
ZUWAKU
  6
Continuous
 62
     4
370
    13
100
AcDbLine
 10
-68.99999999999994
 20
-235.7438466790443
 30
0.0
 11
10.00000000000006
 21
-235.7438466790443
 31
0.0
  0
LINE
  5
CA
330
B9
100
AcDbEntity
  8
ZUWAKU
  6
Continuous
 62
     4
370
    13
100
AcDbLine
 10
-370.0
 20
-225.7438466790443
 30
0.0
 11
-370.0
 21
-265.7438466790443
 31
0.0
  0
LINE
  5
CB
330
B9
100
AcDbEntity
  8
ZUWAKU
  6
Continuous
 62
     4
370
    13
100
AcDbLine
 10
-394.0
 20
-245.7438466790443
 30
0.0
 11
394.0
 21
-245.7438466790443
 31
0.0
  0
LINE
  5
CC
330
B9
100
AcDbEntity
  8
ZUWAKU
  6
Continuous
 62
     4
370
    13
100
AcDbLine
 10
10.00000000000006
 20
-265.7438466790443
 30
0.0
 11
10.00000000000006
 21
-225.7438466790443
 31
0.0
  0
LINE
  5
CD
330
B9
100
AcDbEntity
  8
ZUWAKU
  6
Continuous
 62
     4
370
    13
100
AcDbLine
 10
-68.99999999999994
 20
-265.7438466790443
 30
0.0
 11
-68.99999999999994
 21
-225.7438466790443
 31
0.0
  0
LINE
  5
CE
330
B9
100
AcDbEntity
  8
ZUWAKU
  6
Continuous
 62
     4
370
    13
100
AcDbLine
 10
172.0
 20
-225.7438466790443
 30
0.0
 11
172.0
 21
-265.7438466790443
 31
0.0
  0
LINE
  5
CF
330
B9
100
AcDbEntity
  8
ZUWAKU
  6
Continuous
 62
     4
370
    13
100
AcDbLine
 10
60.00000000000006
 20
-225.7438466790443
 30
0.0
 11
60.00000000000006
 21
-265.7438466790443
 31
0.0
  0
LINE
  5
D0
330
B9
100
AcDbEntity
  8
ZUWAKU
  6
Continuous
 62
     4
370
    13
100
AcDbLine
 10
-52.99999999999994
 20
-245.7438466790443
 30
0.0
 11
-52.99999999999994
 21
-265.7438466790443
 31
0.0
  0
LINE
  5
D1
330
B9
100
AcDbEntity
  8
ZUWAKU
  6
Continuous
 62
     4
370
    13
100
AcDbLine
 10
-262.0
 20
-225.7438466790443
 30
0.0
 11
-262.0
 21
-265.7438466790443
 31
0.0
  0
LINE
  5
D2
330
B9
100
AcDbEntity
  8
ZUWAKU
  6
Continuous
 62
     4
370
    13
100
AcDbLine
 10
394.0
 20
-225.7438466790443
 30
0.0
 11
-394.0
 21
-225.7438466790443
 31
0.0
  0
LINE
  5
D3
330
B9
100
AcDbEntity
  8
ZUWAKU
  6
Continuous
 62
     4
370
    13
100
AcDbLine
 10
196.0
 20
-225.7438466790443
 30
0.0
 11
196.0
 21
-265.7438466790443
 31
0.0
  0
LINE
  5
D4
330
B9
100
AcDbEntity
  8
ZUWAKU
  6
Continuous
 62
     3
370
    13
100
AcDbLine
 10
-375.0
 20
-240.7438466790443
 30
0.0
 11
-382.0
 21
-227.7438466790443
 31
0.0
  0
LINE
  5
D5
330
B9
100
AcDbEntity
  8
ZUWAKU
  6
Continuous
 62
     3
370
    13
100
AcDbLine
 10
-389.0
 20
-240.7438466790443
 30
0.0
 11
-375.0
 21
-240.7438466790443
 31
0.0
  0
LINE
  5
D6
330
B9
100
AcDbEntity
  8
ZUWAKU
  6
Continuous
 62
     3
370
    13
100
AcDbLine
 10
-382.0
 20
-227.7438466790443
 30
0.0
 11
-389.0
 21
-240.7438466790443
 31
0.0
  0
TEXT
  5
D8
330
B9
100
AcDbEntity
  8
ZUWAKU
 62
     2
100
AcDbText
 10
175.6
 20
-263.7438466790443
 30
0.0
 40
6.999999999999996
  1
番号
 41
1.527272727272729
  7
dcStyle1
 72
     5
 11
192.4
 21
-263.7438466790443
 31
0.0
100
AcDbText
  0
TEXT
  5
D9
330
B9
100
AcDbEntity
  8
ZUWAKU
 62
     2
100
AcDbText
 10
-65.19999999999995
 20
-263.7438466790443
 30
0.0
 40
6.999999999999996
  1
度
 41
1.680000000000001
  7
dcStyle1
 72
     5
 11
-56.79999999999995
 21
-263.7438466790443
 31
0.0
100
AcDbText
  0
TEXT
  5
DA
330
B9
100
AcDbEntity
  8
ZUWAKU
 62
     2
100
AcDbText
 10
-389.6438439396566
 20
-263.7438466790443
 30
0.0
 40
7.0
  1
番号
 41
1.272727272727273
  7
dcStyle1
 72
     5
 11
-375.6438439396566
 21
-263.7438466790443
 31
0.0
100
AcDbText
  0
TEXT
  5
DB
330
B9
100
AcDbEntity
  8
ZUWAKU
 62
     2
100
AcDbText
 10
17.00000000000006
 20
-239.7438466790443
 30
0.0
 40
8.0
  1
シリーズ名
 41
1.086206896551724
  7
dcStyle1
 72
     5
 11
53.00000000000006
 21
-239.7438466790443
 31
0.0
100
AcDbText
  0
TEXT
  5
DC
330
B9
100
AcDbEntity
  8
ZUWAKU
 62
     2
100
AcDbText
 10
23.00000000000006
 20
-259.7438466790443
 30
0.0
 40
8.0
  1
機　種
 41
1.235294117647059
  7
dcStyle1
 72
     5
 11
47.00000000000006
 21
-259.7438466790443
 31
0.0
100
AcDbText
  0
TEXT
  5
DD
330
B9
100
AcDbEntity
  8
ZUWAKU
 62
     2
100
AcDbText
 10
-389.0
 20
-254.7438466790443
 30
0.0
 40
7.0
  1
改訂
 41
1.272727272727273
  7
dcStyle1
 72
     5
 11
-375.0
 21
-254.7438466790443
 31
0.0
100
AcDbText
  0
TEXT
  5
DE
330
B9
100
AcDbEntity
  8
ZUWAKU
 62
     2
100
AcDbText
 10
-348.9
 20
-259.2438466790443
 30
0.0
 40
6.999999999999996
  1
改　 訂　 記　 事
 41
1.061290322580645
  7
dcStyle1
 72
     5
 11
-283.1
 21
-259.2438466790443
 31
0.0
100
AcDbText
  0
TEXT
  5
DF
330
B9
100
AcDbEntity
  8
ZUWAKU
 62
     2
100
AcDbText
 10
-65.19999999999995
 20
-254.7438466790443
 30
0.0
 40
6.999999999999996
  1
尺
 41
1.680000000000001
  7
dcStyle1
 72
     5
 11
-56.79999999999995
 21
-254.7438466790443
 31
0.0
100
AcDbText
  0
TEXT
  5
E0
330
B9
100
AcDbEntity
  8
ZUWAKU
 62
     2
100
AcDbText
 10
-53.99999999999993
 20
-234.2438466790443
 30
0.0
 40
6.999999999999996
  1
年　　月　　日
 41
1.195121951219512
  7
dcStyle1
 72
     5
 11
-4.999999999999961
 21
-234.2438466790443
 31
0.0
100
AcDbText
  0
TEXT
  5
E1
330
B9
100
AcDbEntity
  8
ZUWAKU
 62
     2
100
AcDbText
 10
175.6
 20
-254.7438466790443
 30
0.0
 40
6.999999999999996
  1
図面
 41
1.527272727272729
  7
dcStyle1
 72
     5
 11
192.4
 21
-254.7438466790443
 31
0.0
100
AcDbText
  0
TEXT
  5
E2
330
B9
100
AcDbEntity
  8
ZUWAKU
 62
     2
100
AcDbText
 10
176.0
 20
-239.7438466790443
 30
0.0
 40
8.0
  1
図名
 41
1.272727272727273
  7
dcStyle1
 72
     5
 11
192.0
 21
-239.7438466790443
 31
0.0
100
AcDbText
  0
TEXT
  5
E3
330
B9
100
AcDbEntity
  8
ZUWAKU
 62
     7
100
AcDbText
 10
-205.4999999999999
 20
-240.7438466790443
 30
0.0
 40
10.0
  1
技術情報サービス
 41
1.191489361702128
  7
dcStyle1
 72
     5
 11
-125.4999999999999
 21
-240.7438466790443
 31
0.0
100
AcDbText
  0
TEXT
  5
E4
330
B9
100
AcDbEntity
  8
ZUWAKU
 62
     7
100
AcDbText
 10
-234.6823529411764
 20
-259.7438466790443
 30
0.0
 40
8.0
  1
MARUYASU KIKAI CO.,LTD.
 41
0.8990281013395461
  7
dcStyle1
 72
     5
 11
-96.31764705882344
 21
-259.7438466790443
 31
0.0
100
AcDbText
  0
TEXT
  5
E5
330
B9
100
AcDbEntity
  8
ZUWAKU
 62
     4
100
AcDbText
 10
384.9131087847382
 20
-270.2561533209557
 30
0.0
 40
4.0
  1
A3
 41
1.2
  7
dcStyle1
 72
     5
 11
392.9131087847382
 21
-270.2561533209557
 31
0.0
100
AcDbText
  0
ENDBLK
  5
BB
330
B9
100
AcDbEntity
  8
0
100
AcDbBlockEnd
  0
BLOCK
  5
BD
330
BC
100
AcDbEntity
  8
0
100
AcDbBlockBegin
  2
DC_GROUP_W_GSL_S_010_2_2
 70
     0
 10
0.0
 20
0.0
 30
0.0
  3
DC_GROUP_W_GSL_S_010_2_2
  1
DC_GROUP_W_GSL_S_010_2_2
  0
POINT
  5
E6
330
BC
100
AcDbEntity
  8
ZUWAKU
  6
Continuous
 62
     2
100
AcDbPoint
 10
116.0
 20
-235.7438466790443
 30
0.0
  0
POINT
  5
E7
330
BC
100
AcDbEntity
  8
ZUWAKU
  6
Continuous
 62
     2
100
AcDbPoint
 10
116.0
 20
-255.7438466790443
 30
0.0
  0
POINT
  5
E8
330
BC
100
AcDbEntity
  8
ZUWAKU
  6
Continuous
 62
     2
100
AcDbPoint
 10
388.0
 20
-255.7438466790443
 30
0.0
  0
POINT
  5
E9
330
BC
100
AcDbEntity
  8
ZUWAKU
  6
Continuous
 62
     2
100
AcDbPoint
 10
295.0
 20
-235.7438466790443
 30
0.0
  0
POINT
  5
EA
330
BC
100
AcDbEntity
  8
ZUWAKU
  6
Continuous
 62
     2
100
AcDbPoint
 10
-21.49999999999994
 20
-255.7438466790443
 30
0.0
  0
ENDBLK
  5
BE
330
BC
100
AcDbEntity
  8
0
100
AcDbBlockEnd
  0
BLOCK
  5
C0
330
BF
100
AcDbEntity
  8
0
100
AcDbBlockBegin
  2
DC_GROUP_W_GSL_S_010_2_3
 70
     0
 10
0.0
 20
0.0
 30
0.0
  3
DC_GROUP_W_GSL_S_010_2_3
  1
DC_GROUP_W_GSL_S_010_2_3
  0
LINE
  5
EB
330
BF
100
AcDbEntity
  8
0
  6
Continuous
 62
     2
370
    13
100
AcDbLine
 10
-11.077135238851
 20
-56.4163283545728
 30
0.0
 11
-5.303632546954592
 21
-66.41632835457281
 31
0.0
  0
LINE
  5
EC
330
BF
100
AcDbEntity
  8
0
  6
Continuous
 62
     2
370
    13
100
AcDbLine
 10
-5.303632546954592
 20
-66.41632835457281
 30
0.0
 11
-16.85063793074717
 21
-66.41632835457281
 31
0.0
  0
LINE
  5
ED
330
BF
100
AcDbEntity
  8
0
  6
Continuous
 62
     2
370
    13
100
AcDbLine
 10
-16.85063793074717
 20
-66.41632835457281
 30
0.0
 11
-11.077135238851
 21
-56.4163283545728
 31
0.0
  0
TEXT
  5
EE
330
BF
100
AcDbEntity
  8
0
 62
     2
100
AcDbText
 10
-12.577135238851
 20
-65.66632835457281
 30
0.0
 40
5.0
  1
2
 41
0.7411764705882353
  7
dcStyle1
 72
     5
 11
-9.577135238851003
 21
-65.66632835457281
 31
0.0
100
AcDbText
  0
ENDBLK
  5
C1
330
BF
100
AcDbEntity
  8
0
100
AcDbBlockEnd
  0
BLOCK
  5
C3
330
C2
100
AcDbEntity
  8
0
100
AcDbBlockBegin
  2
DC_GROUP_W_GSL_S_010_2_4
 70
     0
 10
0.0
 20
0.0
 30
0.0
  3
DC_GROUP_W_GSL_S_010_2_4
  1
DC_GROUP_W_GSL_S_010_2_4
  0
LINE
  5
EF
330
C2
100
AcDbEntity
  8
9
  6
PHANTOM
 62
   140
370
    13
100
AcDbLine
 10
11.85694391131193
 20
44.38906991746242
 30
0.0
 11
11.85694391131193
 21
55.61022034840735
 31
0.0
  0
LINE
  5
F0
330
C2
100
AcDbEntity
  8
9
  6
PHANTOM
 62
   140
370
    13
100
AcDbLine
 10
11.85694391131193
 20
166.2179747110434
 30
0.0
 11
11.85694391131193
 21
156.3102193484074
 31
0.0
  0
LINE
  5
F1
330
C2
100
AcDbEntity
  8
9
  6
PHANTOM
 62
   140
370
    13
100
AcDbLine
 10
15.85694391131193
 20
49.56021934840734
 30
0.0
 11
15.85694391131193
 21
51.06021934840734
 31
0.0
  0
LINE
  5
F2
330
C2
100
AcDbEntity
  8
9
  6
PHANTOM
 62
   140
370
    13
100
AcDbLine
 10
1.35694391131193
 20
49.56021934840734
 30
0.0
 11
15.85694391131193
 21
49.56021934840734
 31
0.0
  0
LINE
  5
F3
330
C2
100
AcDbEntity
  8
9
  6
PHANTOM
 62
   140
370
    13
100
AcDbLine
 10
-0.1430560886880698
 20
160.5602193484074
 30
0.0
 11
-0.1430560886880698
 21
51.06021934840734
 31
0.0
  0
LINE
  5
F4
330
C2
100
AcDbEntity
  8
9
  6
PHANTOM
 62
   140
370
    13
100
AcDbLine
 10
15.85694391131193
 20
162.0602193484074
 30
0.0
 11
1.35694391131193
 21
162.0602193484074
 31
0.0
  0
LINE
  5
F5
330
C2
100
AcDbEntity
  8
9
  6
PHANTOM
 62
   140
370
    13
100
AcDbLine
 10
15.85694391131193
 20
160.5602193484074
 30
0.0
 11
15.85694391131193
 21
162.0602193484074
 31
0.0
  0
ARC
  5
F6
330
C2
100
AcDbEntity
  8
9
  6
PHANTOM
 62
   140
370
    13
100
AcDbCircle
 10
1.35694391131193
 20
51.06021934840734
 30
0.0
 40
1.5
100
AcDbArc
 50
180.0
 51
270.0
  0
ARC
  5
F7
330
C2
100
AcDbEntity
  8
9
  6
PHANTOM
 62
   140
370
    13
100
AcDbCircle
 10
1.35694391131193
 20
160.5602193484074
 30
0.0
 40
1.5
100
AcDbArc
 50
90.0
 51
180.0
  0
LINE
  5
F8
330
C2
100
AcDbEntity
  8
9
  6
PHANTOM
 62
   140
370
    13
100
AcDbLine
 10
15.85694391131193
 20
160.5602193484074
 30
0.0
 11
1.35694391131193
 21
160.5602193484074
 31
0.0
  0
LINE
  5
F9
330
C2
100
AcDbEntity
  8
9
  6
PHANTOM
 62
   140
370
    13
100
AcDbLine
 10
1.35694391131193
 20
160.5602193484074
 30
0.0
 11
1.35694391131193
 21
51.06021934840734
 31
0.0
  0
LINE
  5
FA
330
C2
100
AcDbEntity
  8
9
  6
PHANTOM
 62
   140
370
    13
100
AcDbLine
 10
1.35694391131193
 20
51.06021934840734
 30
0.0
 11
15.85694391131193
 21
51.06021934840734
 31
0.0
  0
ENDBLK
  5
C4
330
C2
100
AcDbEntity
  8
0
100
AcDbBlockEnd
  0
BLOCK
  5
23F
330
23E
100
AcDbEntity
  8
0
100
AcDbBlockBegin
  2
_OPEN30
 70
     0
 10
0.0
 20
0.0
 30
0.0
  3
_OPEN30
  1
_OPEN30
  0
LINE
  5
241
330
23E
100
AcDbEntity
  8
0
  6
ByBlock
 62
     0
370
    -2
100
AcDbLine
 10
-1.0
 20
0.267949
 30
0.0
 11
0.0
 21
0.0
 31
0.0
  0
LINE
  5
242
330
23E
100
AcDbEntity
  8
0
  6
ByBlock
 62
     0
370
    -2
100
AcDbLine
 10
0.0
 20
0.0
 30
0.0
 11
-1.0
 21
-0.267949
 31
0.0
  0
LINE
  5
243
330
23E
100
AcDbEntity
  8
0
  6
ByBlock
 62
     0
370
    -2
100
AcDbLine
 10
0.0
 20
0.0
 30
0.0
 11
-1.0
 21
0.0
 31
0.0
  0
ENDBLK
  5
240
330
23E
100
AcDbEntity
  8
0
100
AcDbBlockEnd
  0
ENDSEC
  0
SECTION
  2
ENTITIES
  0
TEXT
  5
FC
330
1F
100
AcDbEntity
  8
0
 62
     2
100
AcDbText
 10
210.885152057245
 20
-172.5071556350633
 30
0.0
 40
8.0
  1
本コンベヤは、必ず固定して御使用下さい
 41
0.7420715513201062
  7
dcStyle0
 72
     5
 11
362.885152057245
 21
-172.5071556350633
 31
0.0
100
AcDbText
  0
TEXT
  5
FD
330
1F
100
AcDbEntity
  8
0
 62
     2
100
AcDbText
 10
-383.1430760341912
 20
-239.1706043497171
 30
0.0
 40
6.4
  1
2
 41
0.7411764705882304
  7
dcStyle1
 72
     5
 11
-379.3030760341912
 21
-239.1706043497171
 31
0.0
100
AcDbText
  0
TEXT
  5
FE
330
1F
100
AcDbEntity
  8
0
 62
     2
100
AcDbText
 10
-359.7078113549301
 20
-239.7371307375489
 30
0.0
 40
6.4
  1
モータリニューアルに伴う変更
 41
1.180722891566265
  7
dcStyle1
 72
     5
 11
-270.10781135493
 21
-239.7371307375489
 31
0.0
100
AcDbText
  0
TEXT
  5
FF
330
1F
100
AcDbEntity
  8
0
 62
     2
100
AcDbText
 10
110.0
 20
-259.7438466790443
 30
0.0
 40
8.0
  1
GSL
 41
0.5526315789473684
  7
dcStyle1
 72
     5
 11
122.0
 21
-259.7438466790443
 31
0.0
100
AcDbText
  0
TEXT
  5
100
330
1F
100
AcDbEntity
  8
0
 62
     2
100
AcDbText
 10
-27.49999999999994
 20
-259.7438466790443
 30
0.0
 40
8.0
  1
1/2
 41
0.5338983050847458
  7
dcStyle1
 72
     5
 11
-15.49999999999994
 21
-259.7438466790443
 31
0.0
100
AcDbText
  0
TEXT
  5
101
330
1F
100
AcDbEntity
  8
0
 62
     2
100
AcDbText
 10
336.0
 20
-259.7438466790443
 30
0.0
 40
8.0
  1
W_GSL_S_010_2
 41
0.5617283950617283
  7
dcStyle1
 72
     5
 11
388.0
 21
-259.7438466790443
 31
0.0
100
AcDbText
  0
TEXT
  5
102
330
1F
100
AcDbEntity
  8
0
 62
     2
100
AcDbText
 10
251.0
 20
-239.7438466790443
 30
0.0
 40
8.0
  1
本体組立図　標準タイプ
 41
1.184615384615385
  7
dcStyle1
 72
     5
 11
339.0
 21
-239.7438466790443
 31
0.0
100
AcDbText
  0
TEXT
  5
103
330
1F
100
AcDbEntity
  8
0
 62
     2
100
AcDbText
 10
-47.80009704027176
 20
-244.7797994501052
 30
0.0
 40
8.0
  1
2018.12.1
 41
0.6258278145695364
  7
dcStyle1
 72
     5
 11
-11.80009704027176
 21
-244.7797994501052
 31
0.0
100
AcDbText
  0
TEXT
  5
104
330
1F
100
AcDbEntity
  8
0
 62
     2
100
AcDbText
 10
96.00000000000003
 20
-239.7438466790443
 30
0.0
 40
8.0
  1
N1シリーズ
 41
0.9459459459459459
  7
dcStyle1
 72
     5
 11
136.0
 21
-239.7438466790443
 31
0.0
100
AcDbText
  0
TEXT
  5
105
330
1F
100
AcDbEntity
  8
0
 62
     2
100
AcDbText
 10
164.8569439113031
 20
-61.67283057851269
 30
0.0
 40
8.0
  1
100
 50
90.0
 41
0.6877579092159559
  7
dcStyle0
 72
     5
 11
164.8569439113031
 21
-49.67283057851269
 31
0.0
100
AcDbText
  0
TEXT
  5
106
330
1F
100
AcDbEntity
  8
0
 62
     2
100
AcDbText
 10
144.8569439113031
 20
101.8102193484074
 30
0.0
 40
8.0
  1
90
 50
90.0
 41
0.687757909215956
  7
dcStyle0
 72
     5
 11
144.8569439113031
 21
109.8102193484074
 31
0.0
100
AcDbText
  0
TEXT
  5
107
330
1F
100
AcDbEntity
  8
0
 62
     2
100
AcDbText
 10
164.8569439113031
 20
99.81021934840737
 30
0.0
 40
8.0
  1
116
 50
90.0
 41
0.6877579092159559
  7
dcStyle0
 72
     5
 11
164.8569439113031
 21
111.8102193484074
 31
0.0
100
AcDbText
  0
TEXT
  5
108
330
1F
100
AcDbEntity
  8
0
 62
     2
100
AcDbText
 10
60.85694391130312
 20
15.92716942148749
 30
0.0
 40
8.0
  1
120
 41
0.6877579092159559
  7
dcStyle0
 72
     5
 11
72.85694391130312
 21
15.92716942148749
 31
0.0
100
AcDbText
  0
TEXT
  5
109
330
1F
100
AcDbEntity
  8
0
 62
     2
100
AcDbText
 10
62.85694391130312
 20
-123.6728305785128
 30
0.0
 40
8.0
  1
90
 41
0.687757909215956
  7
dcStyle0
 72
     5
 11
70.85694391130312
 21
-123.6728305785128
 31
0.0
100
AcDbText
  0
TEXT
  5
10A
330
1F
100
AcDbEntity
  8
0
 62
     2
100
AcDbText
 10
115.3569439113031
 20
-123.6728305785128
 30
0.0
 40
8.0
  1
15
 41
0.687757909215956
  7
dcStyle0
 72
     5
 11
123.3569439113031
 21
-123.6728305785128
 31
0.0
100
AcDbText
  0
TEXT
  5
10B
330
1F
100
AcDbEntity
  8
0
 62
     2
100
AcDbText
 10
144.8569439113031
 20
-74.67283057851279
 30
0.0
 40
8.0
  1
40
 50
90.0
 41
0.687757909215956
  7
dcStyle0
 72
     5
 11
144.8569439113031
 21
-66.67283057851279
 31
0.0
100
AcDbText
  0
TEXT
  5
10C
330
1F
100
AcDbEntity
  8
0
 62
     2
100
AcDbText
 10
144.8569439113031
 20
-102.1728305785128
 30
0.0
 40
8.0
  1
15
 50
90.0
 41
0.687757909215956
  7
dcStyle0
 72
     5
 11
144.8569439113031
 21
-94.17283057851279
 31
0.0
100
AcDbText
  0
TEXT
  5
10D
330
1F
100
AcDbEntity
  8
0
 62
     2
100
AcDbText
 10
-19.02392337511549
 20
5.927169421487491
 30
0.0
 40
8.0
  1
φ18
 41
0.687757909215956
  7
dcStyle0
 72
     5
 11
-3.023923375115487
 21
5.927169421487491
 31
0.0
100
AcDbText
  0
TEXT
  5
10E
330
1F
100
AcDbEntity
  8
0
 62
     2
100
AcDbText
 10
136.2371945327185
 20
5.927169421487491
 30
0.0
 40
8.0
  1
φ12
 41
0.687757909215956
  7
dcStyle0
 72
     5
 11
152.2371945327185
 21
5.927169421487491
 31
0.0
100
AcDbText
  0
TEXT
  5
10F
330
1F
100
AcDbEntity
  8
0
 62
     2
100
AcDbText
 10
-105.9034232080139
 20
-129.0376041872275
 30
0.0
 40
8.0
  1
カバー（カバー有りの場合）
 41
0.7111165137057072
  7
dcStyle0
 72
     5
 11
-12.3034232080139
 21
-129.0376041872275
 31
0.0
100
AcDbText
  0
INSERT
  5
110
330
1F
100
AcDbEntity
  8
ZUWAKU
  6
Continuous
100
AcDbBlockReference
  2
DC_GROUP_W_GSL_S_010_2_1
 10
0.0
 20
0.0
 30
0.0
  0
INSERT
  5
111
330
1F
100
AcDbEntity
  8
ZUWAKU
  6
Continuous
100
AcDbBlockReference
  2
DC_GROUP_W_GSL_S_010_2_2
 10
0.0
 20
0.0
 30
0.0
  0
LINE
  5
112
330
1F
100
AcDbEntity
  8
0
  6
CENTERX2
 62
     3
370
    13
100
AcDbLine
 10
21.85694391130312
 20
-46.17283057851279
 30
0.0
 11
21.85694391130312
 21
-55.17283057851279
 31
0.0
  0
LINE
  5
113
330
1F
100
AcDbEntity
  8
0
  6
CENTERX2
 62
     3
370
    13
100
AcDbLine
 10
17.35694391130312
 20
-50.67283057851279
 30
0.0
 11
26.35694391130312
 21
-50.67283057851279
 31
0.0
  0
LINE
  5
114
330
1F
100
AcDbEntity
  8
0
  6
CENTERX2
 62
     3
370
    13
100
AcDbLine
 10
21.85694391130312
 20
-86.17283057851279
 30
0.0
 11
21.85694391130312
 21
-95.17283057851279
 31
0.0
  0
LINE
  5
115
330
1F
100
AcDbEntity
  8
0
  6
CENTERX2
 62
     3
370
    13
100
AcDbLine
 10
17.35694391130312
 20
-90.67283057851279
 30
0.0
 11
26.35694391130312
 21
-90.67283057851279
 31
0.0
  0
LINE
  5
116
330
1F
100
AcDbEntity
  8
0
  6
CENTERX2
 62
     3
370
    13
100
AcDbLine
 10
111.8569439113031
 20
-86.17283057851279
 30
0.0
 11
111.8569439113031
 21
-95.17283057851279
 31
0.0
  0
LINE
  5
117
330
1F
100
AcDbEntity
  8
0
  6
CENTERX2
 62
     3
370
    13
100
AcDbLine
 10
107.3569439113031
 20
-90.67283057851279
 30
0.0
 11
116.3569439113031
 21
-90.67283057851279
 31
0.0
  0
LINE
  5
118
330
1F
100
AcDbEntity
  8
0
  6
CENTERX2
 62
     3
370
    13
100
AcDbLine
 10
111.8569439113031
 20
-46.17283057851279
 30
0.0
 11
111.8569439113031
 21
-55.17283057851279
 31
0.0
  0
LINE
  5
119
330
1F
100
AcDbEntity
  8
0
  6
CENTERX2
 62
     3
370
    13
100
AcDbLine
 10
107.3569439113031
 20
-50.67283057851279
 30
0.0
 11
116.3569439113031
 21
-50.67283057851279
 31
0.0
  0
LINE
  5
11A
330
1F
100
AcDbEntity
  8
0
  6
CENTERX2
 62
     3
370
    13
100
AcDbLine
 10
43.85694391130312
 20
-37.67283057851259
 30
0.0
 11
52.85694391130312
 21
-37.67283057851259
 31
0.0
  0
LINE
  5
11B
330
1F
100
AcDbEntity
  8
0
  6
CENTERX2
 62
     3
370
    13
100
AcDbLine
 10
48.35694391130312
 20
-33.1728305785125
 30
0.0
 11
48.35694391130312
 21
-42.17283057851259
 31
0.0
  0
LINE
  5
11C
330
1F
100
AcDbEntity
  8
0
  6
CENTERX2
 62
     3
370
    13
100
AcDbLine
 10
43.85694391130312
 20
-67.17283057851259
 30
0.0
 11
52.85694391130312
 21
-67.17283057851259
 31
0.0
  0
LINE
  5
11D
330
1F
100
AcDbEntity
  8
0
  6
CENTERX2
 62
     3
370
    13
100
AcDbLine
 10
48.35694391130312
 20
-62.67283057851259
 30
0.0
 11
48.35694391130312
 21
-71.67283057851259
 31
0.0
  0
LINE
  5
11E
330
1F
100
AcDbEntity
  8
0
  6
CENTERX2
 62
     3
370
    13
100
AcDbLine
 10
-3.690609247539328
 20
105.8102193484074
 30
0.0
 11
131.0682764918973
 21
105.8102193484074
 31
0.0
  0
LINE
  5
11F
330
1F
100
AcDbEntity
  8
0
  6
DASHED2
 62
     3
370
    13
100
AcDbLine
 10
106.9569439113034
 20
163.9102193484073
 30
0.0
 11
103.7569439113032
 21
163.9102193484073
 31
0.0
  0
LINE
  5
120
330
1F
100
AcDbEntity
  8
0
  6
DASHED2
 62
     3
370
    13
100
AcDbLine
 10
117.3569439112944
 20
163.9102193484073
 30
0.0
 11
114.5569439112944
 21
163.9102193484073
 31
0.0
  0
LINE
  5
121
330
1F
100
AcDbEntity
  8
0
  6
DASHED2
 62
     3
370
    13
100
AcDbLine
 10
106.9569439113034
 20
47.71021934840743
 30
0.0
 11
103.7569439113032
 21
47.71021934840743
 31
0.0
  0
LINE
  5
122
330
1F
100
AcDbEntity
  8
0
  6
DASHED2
 62
     3
370
    13
100
AcDbLine
 10
117.3569439112944
 20
47.71021934840743
 30
0.0
 11
114.5569439112944
 21
47.71021934840743
 31
0.0
  0
LINE
  5
123
330
1F
100
AcDbEntity
  8
0
  6
Continuous
 62
     7
370
    13
100
AcDbLine
 10
6.856943911303119
 20
-21.27283057851258
 30
0.0
 11
6.856943911303119
 21
-102.6728305785128
 31
0.0
  0
LINE
  5
124
330
1F
100
AcDbEntity
  8
0
  6
Continuous
 62
     7
370
    13
100
AcDbLine
 10
123.8569439113031
 20
-16.07283057851271
 30
0.0
 11
101.8569439113031
 21
-16.07283057851259
 31
0.0
  0
LINE
  5
125
330
1F
100
AcDbEntity
  8
0
  6
Continuous
 62
     7
370
    13
100
AcDbLine
 10
26.35694391130312
 20
-13.77283057851258
 30
0.0
 11
26.35694391130312
 21
-9.672830578512702
 31
0.0
  0
LINE
  5
126
330
1F
100
AcDbEntity
  8
0
  6
Continuous
 62
     7
370
    13
100
AcDbLine
 10
99.85694391130312
 20
-7.672830578512588
 30
0.0
 11
101.8569439113031
 21
-9.672830578512702
 31
0.0
  0
LINE
  5
127
330
1F
100
AcDbEntity
  8
0
  6
Continuous
 62
     7
370
    13
100
AcDbLine
 10
28.35694391130312
 20
-7.672830578512588
 30
0.0
 11
26.35694391130312
 21
-9.672830578512702
 31
0.0
  0
LINE
  5
128
330
1F
100
AcDbEntity
  8
0
  6
Continuous
 62
     7
370
    13
100
AcDbLine
 10
99.85694391130312
 20
-7.672830578512588
 30
0.0
 11
28.35694391130312
 21
-7.672830578512588
 31
0.0
  0
LINE
  5
129
330
1F
100
AcDbEntity
  8
0
  6
Continuous
 62
     7
370
    13
100
AcDbLine
 10
101.8569439113031
 20
-9.672830578512702
 30
0.0
 11
101.8569439113031
 21
-16.07283057851259
 31
0.0
  0
LINE
  5
12A
330
1F
100
AcDbEntity
  8
0
  6
Continuous
 62
     7
370
    13
100
AcDbLine
 10
8.85694391130312
 20
-19.27283057851258
 30
0.0
 11
26.35694391130312
 21
-19.27283057851258
 31
0.0
  0
LINE
  5
12B
330
1F
100
AcDbEntity
  8
0
  6
Continuous
 62
     7
370
    13
100
AcDbLine
 10
26.35694391130312
 20
-19.27283057851258
 30
0.0
 11
26.35694391130312
 21
-13.77283057851258
 31
0.0
  0
LINE
  5
12C
330
1F
100
AcDbEntity
  8
0
  6
Continuous
 62
     7
370
    13
100
AcDbLine
 10
8.85694391130312
 20
-19.27283057851258
 30
0.0
 11
6.856943911303119
 21
-21.27283057851258
 31
0.0
  0
LINE
  5
12D
330
1F
100
AcDbEntity
  8
0
  6
Continuous
 62
     7
370
    13
100
AcDbLine
 10
126.8569439113031
 20
-19.07283057851271
 30
0.0
 11
126.8569439113031
 21
-102.6728305785128
 31
0.0
  0
LINE
  5
12E
330
1F
100
AcDbEntity
  8
0
  6
Continuous
 62
     7
370
    13
100
AcDbLine
 10
9.85694391130312
 20
-105.6728305785128
 30
0.0
 11
123.8569439113031
 21
-105.6728305785128
 31
0.0
  0
LINE
  5
12F
330
1F
100
AcDbEntity
  8
0
  6
Continuous
 62
     7
370
    13
100
AcDbLine
 10
9.85694391130312
 20
-105.6728305785128
 30
0.0
 11
6.856943911303119
 21
-102.6728305785128
 31
0.0
  0
LINE
  5
130
330
1F
100
AcDbEntity
  8
0
  6
Continuous
 62
     7
370
    13
100
AcDbLine
 10
123.8569439113031
 20
-105.6728305785128
 30
0.0
 11
126.8569439113031
 21
-102.6728305785128
 31
0.0
  0
LINE
  5
131
330
1F
100
AcDbEntity
  8
0
  6
Continuous
 62
     7
370
    13
100
AcDbLine
 10
126.8569439113031
 20
-19.07283057851271
 30
0.0
 11
123.8569439113031
 21
-16.07283057851271
 31
0.0
  0
CIRCLE
  5
132
330
1F
100
AcDbEntity
  8
0
  6
Continuous
 62
     7
370
    13
100
AcDbCircle
 10
21.85694391130312
 20
-50.67283057851279
 30
0.0
 40
3.0
  0
CIRCLE
  5
133
330
1F
100
AcDbEntity
  8
0
  6
Continuous
 62
     7
370
    13
100
AcDbCircle
 10
21.85694391130312
 20
-90.67283057851279
 30
0.0
 40
3.0
  0
CIRCLE
  5
134
330
1F
100
AcDbEntity
  8
0
  6
Continuous
 62
     7
370
    13
100
AcDbCircle
 10
111.8569439113031
 20
-90.67283057851279
 30
0.0
 40
3.0
  0
CIRCLE
  5
135
330
1F
100
AcDbEntity
  8
0
  6
Continuous
 62
     7
370
    13
100
AcDbCircle
 10
111.8569439113031
 20
-50.67283057851279
 30
0.0
 40
3.0
  0
LINE
  5
136
330
1F
100
AcDbEntity
  8
0
  6
Continuous
 62
     7
370
    13
100
AcDbLine
 10
-81.65115794495352
 20
-5.672830578512702
 30
0.0
 11
-80.05115794495362
 21
-5.672830578512702
 31
0.0
  0
LINE
  5
137
330
1F
100
AcDbEntity
  8
0
  6
Continuous
 62
     7
370
    13
100
AcDbLine
 10
-80.05115794495362
 20
-5.672830578512702
 30
0.0
 11
-80.05115794495362
 21
-105.6728305785128
 31
0.0
  0
LINE
  5
138
330
1F
100
AcDbEntity
  8
0
  6
Continuous
 62
     7
370
    13
100
AcDbLine
 10
-80.05115794495362
 20
-105.6728305785128
 30
0.0
 11
-81.65115794495352
 21
-105.6728305785128
 31
0.0
  0
LINE
  5
139
330
1F
100
AcDbEntity
  8
0
  6
Continuous
 62
     7
370
    13
100
AcDbLine
 10
-81.65115794495352
 20
-105.6728305785128
 30
0.0
 11
-81.65115794495352
 21
-5.672830578512702
 31
0.0
  0
LINE
  5
13A
330
1F
100
AcDbEntity
  8
0
  6
Continuous
 62
     7
370
    13
100
AcDbLine
 10
-194.6511579449534
 20
-5.672830578512702
 30
0.0
 11
-194.6511579449534
 21
-105.6728305785128
 31
0.0
  0
LINE
  5
13B
330
1F
100
AcDbEntity
  8
0
  6
Continuous
 62
     7
370
    13
100
AcDbLine
 10
-194.6511579449534
 20
-105.6728305785128
 30
0.0
 11
-196.2511579449535
 21
-105.6728305785128
 31
0.0
  0
LINE
  5
13C
330
1F
100
AcDbEntity
  8
0
  6
Continuous
 62
     7
370
    13
100
AcDbLine
 10
-196.2511579449535
 20
-105.6728305785128
 30
0.0
 11
-196.2511579449535
 21
-5.672830578512702
 31
0.0
  0
LINE
  5
13D
330
1F
100
AcDbEntity
  8
0
  6
Continuous
 62
     7
370
    13
100
AcDbLine
 10
-196.2511579449535
 20
-5.672830578512702
 30
0.0
 11
-194.6511579449534
 21
-5.672830578512702
 31
0.0
  0
LINE
  5
13E
330
1F
100
AcDbEntity
  8
0
  6
Continuous
 62
     7
370
    13
100
AcDbLine
 10
101.8569439113031
 20
162.3102193484074
 30
0.0
 11
126.8569439113031
 21
162.3102193484074
 31
0.0
  0
LINE
  5
13F
330
1F
100
AcDbEntity
  8
0
  6
Continuous
 62
     7
370
    13
100
AcDbLine
 10
101.8569439113031
 20
163.9102193484073
 30
0.0
 11
26.35694391130312
 21
163.9102193484073
 31
0.0
  0
LINE
  5
140
330
1F
100
AcDbEntity
  8
0
  6
Continuous
 62
     7
370
    13
100
AcDbLine
 10
101.8569439113031
 20
162.3102193484074
 30
0.0
 11
101.8569439113031
 21
163.9102193484073
 31
0.0
  0
LINE
  5
141
330
1F
100
AcDbEntity
  8
0
  6
Continuous
 62
     7
370
    13
100
AcDbLine
 10
26.35694391130312
 20
162.3102193484074
 30
0.0
 11
101.8569439113031
 21
162.3102193484074
 31
0.0
  0
LINE
  5
142
330
1F
100
AcDbEntity
  8
0
  6
Continuous
 62
     7
370
    13
100
AcDbLine
 10
26.35694391130312
 20
163.9102193484073
 30
0.0
 11
6.356943911303119
 21
163.9102193484073
 31
0.0
  0
LINE
  5
143
330
1F
100
AcDbEntity
  8
0
  6
Continuous
 62
     7
370
    13
100
AcDbLine
 10
26.35694391130312
 20
162.3102193484074
 30
0.0
 11
26.35694391130312
 21
163.9102193484073
 31
0.0
  0
LINE
  5
144
330
1F
100
AcDbEntity
  8
0
  6
Continuous
 62
     7
370
    13
100
AcDbLine
 10
6.356943911303119
 20
162.3102193484074
 30
0.0
 11
26.35694391130312
 21
162.3102193484074
 31
0.0
  0
LINE
  5
145
330
1F
100
AcDbEntity
  8
0
  6
Continuous
 62
     7
370
    13
100
AcDbLine
 10
126.8569439113031
 20
162.3102193484074
 30
0.0
 11
126.8569439113031
 21
163.9102193484073
 31
0.0
  0
LINE
  5
146
330
1F
100
AcDbEntity
  8
0
  6
Continuous
 62
     7
370
    13
100
AcDbLine
 10
126.8569439113031
 20
163.9102193484073
 30
0.0
 11
117.3569439112944
 21
163.9102193484073
 31
0.0
  0
LINE
  5
147
330
1F
100
AcDbEntity
  8
0
  6
Continuous
 62
     7
370
    13
100
AcDbLine
 10
6.356943911303119
 20
163.9102193484073
 30
0.0
 11
6.356943911303119
 21
162.3102193484074
 31
0.0
  0
LINE
  5
148
330
1F
100
AcDbEntity
  8
0
  6
Continuous
 62
     7
370
    13
100
AcDbLine
 10
103.7569439113032
 20
163.9102193484073
 30
0.0
 11
101.8569439113031
 21
163.9102193484073
 31
0.0
  0
LINE
  5
149
330
1F
100
AcDbEntity
  8
0
  6
Continuous
 62
     7
370
    13
100
AcDbLine
 10
114.5569439112944
 20
163.9102193484073
 30
0.0
 11
106.9569439113034
 21
163.9102193484073
 31
0.0
  0
LINE
  5
14A
330
1F
100
AcDbEntity
  8
0
  6
Continuous
 62
     7
370
    13
100
AcDbLine
 10
101.8569439113031
 20
49.31021934840734
 30
0.0
 11
126.8569439113031
 21
49.31021934840734
 31
0.0
  0
LINE
  5
14B
330
1F
100
AcDbEntity
  8
0
  6
Continuous
 62
     7
370
    13
100
AcDbLine
 10
101.8569439113031
 20
47.71021934840743
 30
0.0
 11
26.35694391130312
 21
47.71021934840743
 31
0.0
  0
LINE
  5
14C
330
1F
100
AcDbEntity
  8
0
  6
Continuous
 62
     7
370
    13
100
AcDbLine
 10
101.8569439113031
 20
49.31021934840734
 30
0.0
 11
101.8569439113031
 21
47.71021934840743
 31
0.0
  0
LINE
  5
14D
330
1F
100
AcDbEntity
  8
0
  6
Continuous
 62
     7
370
    13
100
AcDbLine
 10
26.35694391130312
 20
49.31021934840734
 30
0.0
 11
101.8569439113031
 21
49.31021934840734
 31
0.0
  0
LINE
  5
14E
330
1F
100
AcDbEntity
  8
0
  6
Continuous
 62
     7
370
    13
100
AcDbLine
 10
26.35694391130312
 20
47.71021934840743
 30
0.0
 11
6.356943911303119
 21
47.71021934840743
 31
0.0
  0
LINE
  5
14F
330
1F
100
AcDbEntity
  8
0
  6
Continuous
 62
     7
370
    13
100
AcDbLine
 10
26.35694391130312
 20
49.31021934840734
 30
0.0
 11
26.35694391130312
 21
47.71021934840743
 31
0.0
  0
LINE
  5
150
330
1F
100
AcDbEntity
  8
0
  6
Continuous
 62
     7
370
    13
100
AcDbLine
 10
6.356943911303119
 20
49.31021934840734
 30
0.0
 11
26.35694391130312
 21
49.31021934840734
 31
0.0
  0
LINE
  5
151
330
1F
100
AcDbEntity
  8
0
  6
Continuous
 62
     7
370
    13
100
AcDbLine
 10
126.8569439113031
 20
49.31021934840734
 30
0.0
 11
126.8569439113031
 21
47.71021934840743
 31
0.0
  0
LINE
  5
152
330
1F
100
AcDbEntity
  8
0
  6
Continuous
 62
     7
370
    13
100
AcDbLine
 10
126.8569439113031
 20
47.71021934840743
 30
0.0
 11
117.3569439112944
 21
47.71021934840743
 31
0.0
  0
LINE
  5
153
330
1F
100
AcDbEntity
  8
0
  6
Continuous
 62
     7
370
    13
100
AcDbLine
 10
6.356943911303119
 20
47.71021934840743
 30
0.0
 11
6.356943911303119
 21
49.31021934840734
 31
0.0
  0
LINE
  5
154
330
1F
100
AcDbEntity
  8
0
  6
Continuous
 62
     7
370
    13
100
AcDbLine
 10
103.7569439113032
 20
47.71021934840743
 30
0.0
 11
101.8569439113031
 21
47.71021934840743
 31
0.0
  0
LINE
  5
155
330
1F
100
AcDbEntity
  8
0
  6
Continuous
 62
     7
370
    13
100
AcDbLine
 10
114.5569439112944
 20
47.71021934840743
 30
0.0
 11
106.9569439113034
 21
47.71021934840743
 31
0.0
  0
LINE
  5
156
330
1F
100
AcDbEntity
  8
4
  6
Continuous
 62
     3
370
    13
100
AcDbLine
 10
6.856943911303119
 20
-68.17283057851239
 30
0.0
 11
5.856943911294366
 21
-68.17283057851239
 31
0.0
  0
LINE
  5
157
330
1F
100
AcDbEntity
  8
4
  6
Continuous
 62
     3
370
    13
100
AcDbLine
 10
5.856943911294366
 20
84.81021934840734
 30
0.0
 11
5.856943911294366
 21
126.8102193484073
 31
0.0
  0
LINE
  5
158
330
1F
100
AcDbEntity
  8
4
  6
Continuous
 62
     3
370
    13
100
AcDbLine
 10
5.856943911294366
 20
-26.17283057851239
 30
0.0
 11
6.856943911303119
 21
-26.17283057851239
 31
0.0
  0
LINE
  5
159
330
1F
100
AcDbEntity
  8
4
  6
Continuous
 62
     3
370
    13
100
AcDbLine
 10
5.856943911294366
 20
-68.17283057851239
 30
0.0
 11
5.856943911294366
 21
-26.17283057851239
 31
0.0
  0
CIRCLE
  5
15A
330
1F
100
AcDbEntity
  8
4
  6
Continuous
 62
     3
370
    13
100
AcDbCircle
 10
-138.1511579449534
 20
-47.17283057851225
 30
0.0
 40
21.0
  0
LINE
  5
15B
330
1F
100
AcDbEntity
  8
4
  6
DASHED2
 62
     4
370
    13
100
AcDbLine
 10
6.856943911303119
 20
-26.17283057851239
 30
0.0
 11
26.85694391129437
 21
-26.17283057851239
 31
0.0
  0
LINE
  5
15C
330
1F
100
AcDbEntity
  8
4
  6
DASHED2
 62
     4
370
    13
100
AcDbLine
 10
26.85694391129437
 20
-26.17283057851239
 30
0.0
 11
26.85694391129437
 21
-68.17283057851239
 31
0.0
  0
LINE
  5
15D
330
1F
100
AcDbEntity
  8
4
  6
DASHED2
 62
     4
370
    13
100
AcDbLine
 10
26.85694391129437
 20
-68.17283057851239
 30
0.0
 11
6.856943911303119
 21
-68.17283057851239
 31
0.0
  0
LINE
  5
15E
330
1F
100
AcDbEntity
  8
10
  6
Continuous
 62
     3
370
    13
100
AcDbLine
 10
4.356943911294366
 20
-64.67283057851225
 30
0.0
 11
5.856943911294366
 21
-64.67283057851225
 31
0.0
  0
LINE
  5
15F
330
1F
100
AcDbEntity
  8
10
  6
Continuous
 62
     3
370
    13
100
AcDbLine
 10
5.856943911294366
 20
-29.67283057851225
 30
0.0
 11
4.356943911294366
 21
-29.67283057851225
 31
0.0
  0
LINE
  5
160
330
1F
100
AcDbEntity
  8
10
  6
Continuous
 62
     3
370
    13
100
AcDbLine
 10
4.356943911294366
 20
-29.67283057851225
 30
0.0
 11
4.356943911294366
 21
-64.67283057851225
 31
0.0
  0
LINE
  5
161
330
1F
100
AcDbEntity
  8
10
  6
Continuous
 62
     3
370
    13
100
AcDbLine
 10
4.356943911294366
 20
123.3102193484073
 30
0.0
 11
4.356943911294366
 21
88.31021934840734
 31
0.0
  0
LINE
  5
162
330
1F
100
AcDbEntity
  8
10
  6
Continuous
 62
     3
370
    13
100
AcDbLine
 10
5.856943911294366
 20
123.3102193484073
 30
0.0
 11
4.356943911294366
 21
123.3102193484073
 31
0.0
  0
LINE
  5
163
330
1F
100
AcDbEntity
  8
10
  6
Continuous
 62
     3
370
    13
100
AcDbLine
 10
4.356943911294366
 20
88.31021934840734
 30
0.0
 11
5.856943911294366
 21
88.31021934840734
 31
0.0
  0
LINE
  5
164
330
1F
100
AcDbEntity
  8
10
  6
Continuous
 62
     3
370
    13
100
AcDbLine
 10
5.856943911294366
 20
126.8102193484073
 30
0.0
 11
6.556943911294297
 21
126.8102193484073
 31
0.0
  0
LINE
  5
165
330
1F
100
AcDbEntity
  8
10
  6
Continuous
 62
     3
370
    13
100
AcDbLine
 10
5.856943911294366
 20
84.81021934840734
 30
0.0
 11
6.556943911294297
 21
84.81021934840734
 31
0.0
  0
LINE
  5
166
330
1F
100
AcDbEntity
  8
3
  6
Continuous
 62
     7
370
    18
100
AcDbLine
 10
104.0569425255034
 20
-116.1340692833025
 30
0.0
 11
104.0569425255034
 21
-134.6860491715838
 31
0.0
  0
LINE
  5
167
330
1F
100
AcDbEntity
  8
3
  6
Continuous
 62
     7
370
    18
100
AcDbLine
 10
94.05694088640337
 20
-134.6860491715838
 30
0.0
 11
94.05694088640337
 21
-116.1340692833025
 31
0.0
  0
LINE
  5
168
330
1F
100
AcDbEntity
  8
3
  6
Continuous
 62
     7
370
    18
100
AcDbLine
 10
103.5569415122033
 20
-116.0279820483716
 30
0.0
 11
103.5569415122033
 21
-116.1340692833025
 31
0.0
  0
LINE
  5
169
330
1F
100
AcDbEntity
  8
3
  6
Continuous
 62
     7
370
    18
100
AcDbLine
 10
94.55694189960343
 20
-116.1340692833025
 30
0.0
 11
94.55694189960343
 21
-116.0279820483716
 31
0.0
  0
LINE
  5
16A
330
1F
100
AcDbEntity
  8
3
  6
Continuous
 62
     7
370
    18
100
AcDbLine
 10
98.2507683962034
 20
-135.7376539193839
 30
0.0
 11
98.21006214910324
 21
-135.5974786959838
 31
0.0
  0
LINE
  5
16B
330
1F
100
AcDbEntity
  8
3
  6
Continuous
 62
     7
370
    18
100
AcDbLine
 10
94.05694088640337
 20
-116.1340692833025
 30
0.0
 11
104.0569425255034
 21
-116.1340692833025
 31
0.0
  0
LINE
  5
16C
330
1F
100
AcDbEntity
  8
3
  6
Continuous
 62
     7
370
    18
100
AcDbLine
 10
94.05694088640337
 20
-134.6860491715838
 30
0.0
 11
104.0569425255034
 21
-134.6860491715838
 31
0.0
  0
LINE
  5
16D
330
1F
100
AcDbEntity
  8
3
  6
Continuous
 62
     7
370
    18
100
AcDbLine
 10
91.38194175060323
 20
-116.0279812038716
 30
0.0
 11
98.05694175060341
 21
-116.0279812038716
 31
0.0
  0
LINE
  5
16E
330
1F
100
AcDbEntity
  8
3
  6
Continuous
 62
     7
370
    18
100
AcDbLine
 10
98.05694175060341
 20
-116.0279812038716
 30
0.0
 11
97.05694175060341
 21
-114.0279812038716
 31
0.0
  0
LINE
  5
16F
330
1F
100
AcDbEntity
  8
3
  6
Continuous
 62
     7
370
    18
100
AcDbLine
 10
97.05694175060341
 20
-114.0279812038716
 30
0.0
 11
99.05694175060341
 21
-116.0279812038716
 31
0.0
  0
LINE
  5
170
330
1F
100
AcDbEntity
  8
3
  6
Continuous
 62
     7
370
    18
100
AcDbLine
 10
99.05694175060341
 20
-116.0279812038716
 30
0.0
 11
101.0569417506034
 21
-118.0279812038716
 31
0.0
  0
LINE
  5
171
330
1F
100
AcDbEntity
  8
3
  6
Continuous
 62
     7
370
    18
100
AcDbLine
 10
101.0569417506034
 20
-118.0279812038716
 30
0.0
 11
100.0569417506034
 21
-116.0279812038716
 31
0.0
  0
LINE
  5
172
330
1F
100
AcDbEntity
  8
3
  6
Continuous
 62
     7
370
    18
100
AcDbLine
 10
100.0569417506034
 20
-116.0279812038716
 30
0.0
 11
106.7319417506034
 21
-116.0279812038716
 31
0.0
  0
LINE
  5
173
330
1F
100
AcDbEntity
  8
3
  6
Continuous
 62
     7
370
    18
100
AcDbLine
 10
91.38194175060323
 20
-113.0279812038716
 30
0.0
 11
98.05694175060341
 21
-113.0279812038716
 31
0.0
  0
LINE
  5
174
330
1F
100
AcDbEntity
  8
3
  6
Continuous
 62
     7
370
    18
100
AcDbLine
 10
98.05694175060341
 20
-113.0279812038716
 30
0.0
 11
97.05694175060341
 21
-111.0279812038716
 31
0.0
  0
LINE
  5
175
330
1F
100
AcDbEntity
  8
3
  6
Continuous
 62
     7
370
    18
100
AcDbLine
 10
97.05694175060341
 20
-111.0279812038716
 30
0.0
 11
99.05694175060341
 21
-113.0279812038716
 31
0.0
  0
LINE
  5
176
330
1F
100
AcDbEntity
  8
3
  6
Continuous
 62
     7
370
    18
100
AcDbLine
 10
99.05694175060341
 20
-113.0279812038716
 30
0.0
 11
101.0569417506034
 21
-115.0279812038716
 31
0.0
  0
LINE
  5
177
330
1F
100
AcDbEntity
  8
3
  6
Continuous
 62
     7
370
    18
100
AcDbLine
 10
101.0569417506034
 20
-115.0279812038716
 30
0.0
 11
100.0569417506034
 21
-113.0279812038716
 31
0.0
  0
LINE
  5
178
330
1F
100
AcDbEntity
  8
3
  6
Continuous
 62
     7
370
    18
100
AcDbLine
 10
100.0569417506034
 20
-113.0279812038716
 30
0.0
 11
106.7319417506034
 21
-113.0279812038716
 31
0.0
  0
LINE
  5
179
330
1F
100
AcDbEntity
  8
3
  6
Continuous
 62
     7
370
    18
100
AcDbLine
 10
99.59803165698429
 20
-142.8567679836252
 30
0.0
 11
99.03548962170328
 21
-139.2058842860838
 31
0.0
  0
LINE
  5
17A
330
1F
100
AcDbEntity
  8
3
  6
Continuous
 62
     7
370
    18
100
AcDbLine
 10
100.3181379759093
 20
-142.8567679836252
 30
0.0
 11
99.11077028810325
 21
-138.6991255961838
 31
0.0
  0
LINE
  5
17B
330
1F
100
AcDbEntity
  8
3
  6
Continuous
 62
     7
370
    18
100
AcDbLine
 10
99.9453843266034
 20
-134.6860491715838
 30
0.0
 11
102.3179271994585
 21
-142.8567679836252
 31
0.0
  0
LINE
  5
17C
330
1F
100
AcDbEntity
  8
3
  6
Continuous
 62
     7
370
    18
100
AcDbLine
 10
102.9495599488026
 20
-142.8567679836252
 30
0.0
 11
99.9887951344034
 21
-134.6860491715838
 31
0.0
  0
LINE
  5
17D
330
1F
100
AcDbEntity
  8
3
  6
Continuous
 62
     7
370
    18
100
AcDbLine
 10
101.9887917369034
 20
-134.6860491715838
 30
0.0
 11
104.9479227099295
 21
-142.8567679836252
 31
0.0
  0
LINE
  5
17E
330
1F
100
AcDbEntity
  8
3
  6
Continuous
 62
     7
370
    18
100
AcDbLine
 10
94.62308518593136
 20
-142.8567679836252
 30
0.0
 11
96.1370163291034
 21
-134.6860491715838
 31
0.0
  0
LINE
  5
17F
330
1F
100
AcDbEntity
  8
3
  6
Continuous
 62
     7
370
    18
100
AcDbLine
 10
94.67724831359294
 20
-142.8567679836252
 30
0.0
 11
96.19866243300328
 21
-134.6860491715838
 31
0.0
  0
LINE
  5
180
330
1F
100
AcDbEntity
  8
3
  6
Continuous
 62
     7
370
    18
100
AcDbLine
 10
95.7267306302465
 20
-142.8567679836252
 30
0.0
 11
97.05903685390342
 21
-134.6860491715838
 31
0.0
  0
LINE
  5
181
330
1F
100
AcDbEntity
  8
3
  6
Continuous
 62
     7
370
    18
100
AcDbLine
 10
98.3590365082033
 20
-134.6860491715838
 30
0.0
 11
97.02353809087981
 21
-142.8567679836252
 31
0.0
  0
LINE
  5
182
330
1F
100
AcDbEntity
  8
3
  6
Continuous
 62
     7
370
    18
100
AcDbLine
 10
97.19352742179285
 20
-142.8567679836252
 30
0.0
 11
98.40694001610325
 21
-134.6860491715838
 31
0.0
  0
LINE
  5
183
330
1F
100
AcDbEntity
  8
3
  6
Continuous
 62
     7
370
    18
100
AcDbLine
 10
99.7069433957032
 20
-134.6860491715838
 30
0.0
 11
98.49312634232058
 21
-142.8567679836252
 31
0.0
  0
LINE
  5
184
330
1F
100
AcDbEntity
  8
3
  6
Continuous
 62
     7
370
    18
100
AcDbLine
 10
103.5569415122033
 20
-105.6004040603919
 30
0.0
 11
103.5569415122033
 21
-113.0279784959716
 31
0.0
  0
LINE
  5
185
330
1F
100
AcDbEntity
  8
3
  6
Continuous
 62
     7
370
    18
100
AcDbLine
 10
94.55694189960343
 20
-113.0279784959716
 30
0.0
 11
94.55694189960343
 21
-105.6728305785128
 31
0.0
  0
LINE
  5
186
330
1F
100
AcDbEntity
  8
3
  6
Continuous
 62
     7
370
    18
100
AcDbLine
 10
-143.1511578332035
 20
-116.1340752575026
 30
0.0
 11
-143.1511578332035
 21
-134.6860551457839
 31
0.0
  0
LINE
  5
187
330
1F
100
AcDbEntity
  8
3
  6
Continuous
 62
     7
370
    18
100
AcDbLine
 10
-133.1511580567036
 20
-134.6860551457839
 30
0.0
 11
-133.1511580567036
 21
-116.1340752575026
 31
0.0
  0
LINE
  5
188
330
1F
100
AcDbEntity
  8
3
  6
Continuous
 62
     7
370
    18
100
AcDbLine
 10
-142.6511577512034
 20
-116.0279880225717
 30
0.0
 11
-142.6511577512034
 21
-116.1340752575026
 31
0.0
  0
LINE
  5
189
330
1F
100
AcDbEntity
  8
3
  6
Continuous
 62
     7
370
    18
100
AcDbLine
 10
-133.6511581386036
 20
-116.1340752575026
 30
0.0
 11
-133.6511581386036
 21
-116.0279880225717
 31
0.0
  0
LINE
  5
18A
330
1F
100
AcDbEntity
  8
3
  6
Continuous
 62
     7
370
    18
100
AcDbLine
 10
-138.1511579449035
 20
-134.6860551457839
 30
0.0
 11
-143.1511578332035
 21
-134.6860551457839
 31
0.0
  0
LINE
  5
18B
330
1F
100
AcDbEntity
  8
3
  6
Continuous
 62
     7
370
    18
100
AcDbLine
 10
-133.1511580567036
 20
-134.6860551457839
 30
0.0
 11
-138.1511579449035
 21
-134.6860551457839
 31
0.0
  0
LINE
  5
18C
330
1F
100
AcDbEntity
  8
3
  6
Continuous
 62
     7
370
    18
100
AcDbLine
 10
-130.4761579449035
 20
-116.0279871780717
 30
0.0
 11
-137.1511579449035
 21
-116.0279871780717
 31
0.0
  0
LINE
  5
18D
330
1F
100
AcDbEntity
  8
3
  6
Continuous
 62
     7
370
    18
100
AcDbLine
 10
-137.1511579449035
 20
-116.0279871780717
 30
0.0
 11
-136.1511579449035
 21
-114.0279871780717
 31
0.0
  0
LINE
  5
18E
330
1F
100
AcDbEntity
  8
3
  6
Continuous
 62
     7
370
    18
100
AcDbLine
 10
-136.1511579449035
 20
-114.0279871780717
 30
0.0
 11
-138.1511579449035
 21
-116.0279871780717
 31
0.0
  0
LINE
  5
18F
330
1F
100
AcDbEntity
  8
3
  6
Continuous
 62
     7
370
    18
100
AcDbLine
 10
-138.1511579449035
 20
-116.0279871780717
 30
0.0
 11
-140.1511579449035
 21
-118.0279871780717
 31
0.0
  0
LINE
  5
190
330
1F
100
AcDbEntity
  8
3
  6
Continuous
 62
     7
370
    18
100
AcDbLine
 10
-140.1511579449035
 20
-118.0279871780717
 30
0.0
 11
-139.1511579449035
 21
-116.0279871780717
 31
0.0
  0
LINE
  5
191
330
1F
100
AcDbEntity
  8
3
  6
Continuous
 62
     7
370
    18
100
AcDbLine
 10
-139.1511579449035
 20
-116.0279871780717
 30
0.0
 11
-145.8261579449035
 21
-116.0279871780717
 31
0.0
  0
LINE
  5
192
330
1F
100
AcDbEntity
  8
3
  6
Continuous
 62
     7
370
    18
100
AcDbLine
 10
-130.4761579449035
 20
-113.0279871780717
 30
0.0
 11
-137.1511579449035
 21
-113.0279871780717
 31
0.0
  0
LINE
  5
193
330
1F
100
AcDbEntity
  8
3
  6
Continuous
 62
     7
370
    18
100
AcDbLine
 10
-137.1511579449035
 20
-113.0279871780717
 30
0.0
 11
-136.1511579449035
 21
-111.0279871780717
 31
0.0
  0
LINE
  5
194
330
1F
100
AcDbEntity
  8
3
  6
Continuous
 62
     7
370
    18
100
AcDbLine
 10
-136.1511579449035
 20
-111.0279871780717
 30
0.0
 11
-138.1511579449035
 21
-113.0279871780717
 31
0.0
  0
LINE
  5
195
330
1F
100
AcDbEntity
  8
3
  6
Continuous
 62
     7
370
    18
100
AcDbLine
 10
-138.1511579449035
 20
-113.0279871780717
 30
0.0
 11
-140.1511579449035
 21
-115.0279871780717
 31
0.0
  0
LINE
  5
196
330
1F
100
AcDbEntity
  8
3
  6
Continuous
 62
     7
370
    18
100
AcDbLine
 10
-140.1511579449035
 20
-115.0279871780717
 30
0.0
 11
-139.1511579449035
 21
-113.0279871780717
 31
0.0
  0
LINE
  5
197
330
1F
100
AcDbEntity
  8
3
  6
Continuous
 62
     7
370
    18
100
AcDbLine
 10
-139.1511579449035
 20
-113.0279871780717
 30
0.0
 11
-145.8261579449035
 21
-113.0279871780717
 31
0.0
  0
LINE
  5
198
330
1F
100
AcDbEntity
  8
3
  6
Continuous
 62
     7
370
    18
100
AcDbLine
 10
-133.6511581386036
 20
-113.0279844701717
 30
0.0
 11
-133.6511581386036
 21
-102.1728305785124
 31
0.0
  0
LINE
  5
199
330
1F
100
AcDbEntity
  8
3
  6
Continuous
 62
     7
370
    18
100
AcDbLine
 10
-142.6511577512034
 20
-102.1728305785124
 30
0.0
 11
-142.6511577512034
 21
-113.0279844701717
 31
0.0
  0
LINE
  5
19A
330
1F
100
AcDbEntity
  8
3
  6
Continuous
 62
     7
370
    18
100
AcDbLine
 10
-133.1511580567036
 20
-116.1340752575026
 30
0.0
 11
-133.6511581386036
 21
-116.1340752575026
 31
0.0
  0
LINE
  5
19B
330
1F
100
AcDbEntity
  8
3
  6
Continuous
 62
     7
370
    18
100
AcDbLine
 10
-142.6511577512034
 20
-116.1340752575026
 30
0.0
 11
-143.1511578332035
 21
-116.1340752575026
 31
0.0
  0
LINE
  5
19C
330
1F
100
AcDbEntity
  8
3
  6
Continuous
 62
     7
370
    18
100
AcDbLine
 10
-141.1511579710033
 20
-134.6860551457839
 30
0.0
 11
-140.1332631423035
 21
-142.8567679836252
 31
0.0
  0
LINE
  5
19D
330
1F
100
AcDbEntity
  8
3
  6
Continuous
 62
     7
370
    18
100
AcDbLine
 10
-135.7009534906034
 20
-134.6860551457839
 30
0.0
 11
-134.9222706539711
 21
-142.8567679836252
 31
0.0
  0
LINE
  5
19E
330
1F
100
AcDbEntity
  8
3
  6
Continuous
 62
     7
370
    18
100
AcDbLine
 10
-140.7261652122035
 20
-134.6860551457839
 30
0.0
 11
-139.9090799452034
 21
-142.8567679836252
 31
0.0
  0
LINE
  5
19F
330
1F
100
AcDbEntity
  8
3
  6
Continuous
 62
     7
370
    18
100
AcDbLine
 10
-136.8929332304034
 20
-134.6860551457839
 30
0.0
 11
-135.6097065638453
 21
-142.8567679836252
 31
0.0
  0
LINE
  5
1A0
330
1F
100
AcDbEntity
  8
3
  6
Continuous
 62
     7
370
    18
100
AcDbLine
 10
-138.1929331903033
 20
-134.6860551457839
 30
0.0
 11
-136.7185876654033
 21
-142.8567679836252
 31
0.0
  0
LINE
  5
1A1
330
1F
100
AcDbEntity
  8
3
  6
Continuous
 62
     7
370
    18
100
AcDbLine
 10
-138.3049052885034
 20
-134.6860551457839
 30
0.0
 11
-138.0757089630207
 21
-142.8567679836252
 31
0.0
  0
LINE
  5
1A2
330
1F
100
AcDbEntity
  8
3
  6
Continuous
 62
     7
370
    18
100
AcDbLine
 10
-139.6049053357034
 20
-134.6860551457839
 30
0.0
 11
-139.3311620406035
 21
-142.8567679836252
 31
0.0
  0
LINE
  5
1A3
330
1F
100
AcDbEntity
  8
3
  6
Continuous
 62
     7
370
    18
100
AcDbLine
 10
-135.2342798869601
 20
-142.8567679836252
 30
0.0
 11
-135.1606711461035
 21
-134.6860551457839
 31
0.0
  0
LINE
  5
1A4
330
1F
100
AcDbEntity
  8
3
  6
Continuous
 62
     7
370
    18
100
AcDbLine
 10
-140.6511549984534
 20
-45.17283249961233
 30
0.0
 11
-142.7337305767534
 21
-45.17283249961233
 31
0.0
  0
LINE
  5
1A5
330
1F
100
AcDbEntity
  8
3
  6
Continuous
 62
     7
370
    18
100
AcDbLine
 10
-140.6511549984534
 20
-49.1728406058123
 30
0.0
 11
-142.7337305767534
 21
-49.1728406058123
 31
0.0
  0
LINE
  5
1A6
330
1F
100
AcDbEntity
  8
3
  6
Continuous
 62
     7
370
    18
100
AcDbLine
 10
-140.6511549984534
 20
-49.1728406058123
 30
0.0
 11
-140.6511549984534
 21
-45.17283249961233
 31
0.0
  0
CIRCLE
  5
1A7
330
1F
100
AcDbEntity
  8
3
  6
Continuous
 62
     7
370
    18
100
AcDbCircle
 10
-138.1511618581534
 20
-47.17283655271237
 30
0.0
 40
4.999995227320806
  0
LINE
  5
1A8
330
1F
100
AcDbEntity
  8
3
  6
DASHED2
 62
     4
370
    13
100
AcDbLine
 10
103.5569415122033
 20
-105.6004040603919
 30
0.0
 11
103.5569415122033
 21
-98.17282962481224
 31
0.0
  0
LINE
  5
1A9
330
1F
100
AcDbEntity
  8
3
  6
DASHED2
 62
     4
370
    13
100
AcDbLine
 10
94.55694189960343
 20
-105.6728305785128
 30
0.0
 11
94.55694189960343
 21
-98.17282962481224
 31
0.0
  0
LINE
  5
1AA
330
1F
100
AcDbEntity
  8
3
  6
DASHED2
 62
     4
370
    13
100
AcDbLine
 10
-133.6511581386036
 20
-102.1728305785124
 30
0.0
 11
-133.6511581386036
 21
-98.1728355990123
 31
0.0
  0
LINE
  5
1AB
330
1F
100
AcDbEntity
  8
3
  6
DASHED2
 62
     4
370
    13
100
AcDbLine
 10
-142.6511577512034
 20
-102.1728305785124
 30
0.0
 11
-142.6511577512034
 21
-98.1728355990123
 31
0.0
  0
LINE
  5
1AC
330
1F
100
AcDbEntity
  8
3
  6
DASHED2
 62
     4
370
    13
100
AcDbLine
 10
114.4636105779614
 20
150.8102193484074
 30
0.0
 11
114.3569439112944
 21
142.8102193484073
 31
0.0
  0
LINE
  5
1AD
330
1F
100
AcDbEntity
  8
3
  6
DASHED2
 62
     4
370
    13
100
AcDbLine
 10
126.2502772446272
 20
60.81021934840734
 30
0.0
 11
126.3569439112943
 21
68.81021934840734
 31
0.0
  0
LINE
  5
1AE
330
1F
100
AcDbEntity
  8
3
  6
DASHED2
 62
     4
370
    13
100
AcDbLine
 10
114.3569439112944
 20
68.81021934840734
 30
0.0
 11
114.4636105779614
 21
60.81021934840734
 31
0.0
  0
LINE
  5
1AF
330
1F
100
AcDbEntity
  8
3
  6
DASHED2
 62
     4
370
    13
100
AcDbLine
 10
126.3569439112943
 20
142.8102193484073
 30
0.0
 11
126.2502772446272
 21
150.8102193484074
 31
0.0
  0
LINE
  5
1B0
330
1F
100
AcDbEntity
  8
3
  6
DASHED2
 62
     4
370
    13
100
AcDbLine
 10
126.3569439112943
 20
68.81021934840734
 30
0.0
 11
126.3569439112943
 21
142.8102193484073
 31
0.0
  0
LINE
  5
1B1
330
1F
100
AcDbEntity
  8
3
  6
DASHED2
 62
     4
370
    13
100
AcDbLine
 10
114.3569439112944
 20
68.81021934840734
 30
0.0
 11
114.3569439112944
 21
142.8102193484073
 31
0.0
  0
ARC
  5
1B2
330
1F
100
AcDbEntity
  8
3
  6
DASHED2
 62
     4
370
    13
100
AcDbCircle
 10
-163.1511718565536
 20
-82.1728456807123
 30
0.0
 40
4.999982527328707
100
AcDbArc
 50
179.9998544186
 51
270.0001882701003
  0
LINE
  5
1B3
330
1F
100
AcDbEntity
  8
3
  6
DASHED2
 62
     4
370
    13
100
AcDbLine
 10
-168.1511543838534
 20
-82.17283297641231
 30
0.0
 11
-168.1511543838534
 21
-32.17282105551223
 31
0.0
  0
ARC
  5
1B4
330
1F
100
AcDbEntity
  8
3
  6
DASHED2
 62
     4
370
    13
100
AcDbCircle
 10
-163.1511718565536
 20
-32.17280835111225
 30
0.0
 40
4.999982527328762
100
AcDbArc
 50
89.9998117298997
 51
180.0001455813997
  0
ARC
  5
1B5
330
1F
100
AcDbEntity
  8
3
  6
DASHED2
 62
     4
370
    13
100
AcDbCircle
 10
-113.1511382522535
 20
-32.17280835111225
 30
0.0
 40
4.999982527328764
100
AcDbArc
 50
359.9998544186003
 51
90.00018827010027
  0
LINE
  5
1B6
330
1F
100
AcDbEntity
  8
3
  6
DASHED2
 62
     4
370
    13
100
AcDbLine
 10
-108.1511557249534
 20
-32.17282105551223
 30
0.0
 11
-108.1511557249534
 21
-82.17283297641231
 31
0.0
  0
ARC
  5
1B7
330
1F
100
AcDbEntity
  8
3
  6
DASHED2
 62
     4
370
    13
100
AcDbCircle
 10
-113.1511382522535
 20
-82.1728456807123
 30
0.0
 40
4.999982527328764
100
AcDbArc
 50
269.9998117298997
 51
0.0001455814000405
  0
LINE
  5
1B8
330
1F
100
AcDbEntity
  8
3
  6
DASHED2
 62
     4
370
    13
100
AcDbLine
 10
-113.1511546818534
 20
-87.1728282080123
 30
0.0
 11
-163.1511554269536
 21
-87.1728282080123
 31
0.0
  0
CIRCLE
  5
1B9
330
1F
100
AcDbEntity
  8
3
  6
DASHED2
 62
     4
370
    13
100
AcDbCircle
 10
-113.4024181748534
 20
-32.42409906391228
 30
0.0
 40
2.249998315011545
  0
CIRCLE
  5
1BA
330
1F
100
AcDbEntity
  8
3
  6
DASHED2
 62
     4
370
    13
100
AcDbCircle
 10
-113.4024181748534
 20
-81.92156932361232
 30
0.0
 40
2.249998315011533
  0
CIRCLE
  5
1BB
330
1F
100
AcDbEntity
  8
3
  6
DASHED2
 62
     4
370
    13
100
AcDbCircle
 10
-162.8998921598534
 20
-81.92156932361232
 30
0.0
 40
2.249998315011533
  0
CIRCLE
  5
1BC
330
1F
100
AcDbEntity
  8
3
  6
DASHED2
 62
     4
370
    13
100
AcDbCircle
 10
-162.8998921598534
 20
-32.42409906391228
 30
0.0
 40
2.249998315011523
  0
LINE
  5
1BD
330
1F
100
AcDbEntity
  8
3
  6
DASHED2
 62
     4
370
    13
100
AcDbLine
 10
-145.0111388375535
 20
-97.17283357241232
 30
0.0
 11
-145.0111388375535
 21
-87.1728282080123
 31
0.0
  0
LINE
  5
1BE
330
1F
100
AcDbEntity
  8
3
  6
DASHED2
 62
     4
370
    13
100
AcDbLine
 10
-131.2911712711535
 20
-87.1728282080123
 30
0.0
 11
-131.2911712711535
 21
-97.17283357241232
 31
0.0
  0
LINE
  5
1BF
330
1F
100
AcDbEntity
  8
3
  6
DASHED2
 62
     4
370
    13
100
AcDbLine
 10
-125.3242429492534
 20
-95.47548700431233
 30
0.0
 11
-129.1511554418535
 21
-96.57282341581228
 31
0.0
  0
LINE
  5
1C0
330
1F
100
AcDbEntity
  8
3
  6
DASHED2
 62
     4
370
    13
100
AcDbLine
 10
-129.1511554418535
 20
-96.57282341581228
 30
0.0
 11
-129.1511554418535
 21
-97.17283357241232
 31
0.0
  0
LINE
  5
1C1
330
1F
100
AcDbEntity
  8
3
  6
DASHED2
 62
     4
370
    13
100
AcDbLine
 10
-123.1511553896535
 20
-87.1728282080123
 30
0.0
 11
-123.1511553896535
 21
-92.59169508081229
 31
0.0
  0
ARC
  5
1C2
330
1F
100
AcDbEntity
  8
3
  6
DASHED2
 62
     4
370
    13
100
AcDbCircle
 10
-126.1511837850535
 20
-92.59168062601228
 30
0.0
 40
3.000028395432686
100
AcDbArc
 50
286.0004160668999
 51
359.9997239365999
  0
LINE
  5
1C3
330
1F
100
AcDbEntity
  8
3
  6
DASHED2
 62
     4
370
    13
100
AcDbLine
 10
-147.1511546669534
 20
-97.17283357241232
 30
0.0
 11
-147.1511546669534
 21
-96.57282341581228
 31
0.0
  0
LINE
  5
1C4
330
1F
100
AcDbEntity
  8
3
  6
DASHED2
 62
     4
370
    13
100
AcDbLine
 10
-147.1511546669534
 20
-96.57282341581228
 30
0.0
 11
-150.9780671594534
 21
-95.47548700431233
 31
0.0
  0
ARC
  5
1C5
330
1F
100
AcDbEntity
  8
3
  6
DASHED2
 62
     4
370
    13
100
AcDbCircle
 10
-150.1511263237534
 20
-92.59168062601228
 30
0.0
 40
3.000028395432628
100
AcDbArc
 50
180.0002760634001
 51
253.9995839330998
  0
LINE
  5
1C6
330
1F
100
AcDbEntity
  8
3
  6
DASHED2
 62
     4
370
    13
100
AcDbLine
 10
-153.1511547191535
 20
-92.59169508081229
 30
0.0
 11
-153.1511547191535
 21
-87.1728282080123
 31
0.0
  0
LINE
  5
1C7
330
1F
100
AcDbEntity
  8
3
  6
DASHED2
 62
     4
370
    13
100
AcDbLine
 10
-129.1511554418535
 20
-97.17283357241232
 30
0.0
 11
-147.1511546669534
 21
-97.17283357241232
 31
0.0
  0
LINE
  5
1C8
330
1F
100
AcDbEntity
  8
3
  6
DASHED2
 62
     4
370
    13
100
AcDbLine
 10
-143.9511549806534
 20
-98.1728355990123
 30
0.0
 11
-143.9511549806534
 21
-97.17283357241232
 31
0.0
  0
LINE
  5
1C9
330
1F
100
AcDbEntity
  8
3
  6
DASHED2
 62
     4
370
    13
100
AcDbLine
 10
-132.3511551281534
 20
-98.1728355990123
 30
0.0
 11
-132.3511551281534
 21
-97.17283357241232
 31
0.0
  0
LINE
  5
1CA
330
1F
100
AcDbEntity
  8
3
  6
DASHED2
 62
     4
370
    13
100
AcDbLine
 10
-132.3511551281534
 20
-98.1728355990123
 30
0.0
 11
-143.9511549806534
 21
-98.1728355990123
 31
0.0
  0
CIRCLE
  5
1CB
330
1F
100
AcDbEntity
  8
10
  6
Continuous
 62
     7
370
    13
100
AcDbCircle
 10
-138.1511579449517
 20
-47.17283057851225
 30
0.0
 40
17.5
  0
LINE
  5
1CC
330
1F
100
AcDbEntity
  8
3
  6
CENTERX2
 62
     3
370
    13
100
AcDbLine
 10
-164.1511579449534
 20
-47.17283057851225
 30
0.0
 11
-112.1511579449534
 21
-47.17283057851225
 31
0.0
  0
LINE
  5
1CD
330
1F
100
AcDbEntity
  8
3
  6
CENTERX2
 62
     3
370
    13
100
AcDbLine
 10
34.04873953930303
 20
-32.4240933624122
 30
0.0
 11
43.20993092623758
 21
-32.4240933624122
 31
0.0
  0
LINE
  5
1CE
330
1F
100
AcDbEntity
  8
3
  6
CENTERX2
 62
     3
370
    13
100
AcDbLine
 10
26.55694379210343
 20
-57.17282104171223
 30
0.0
 11
117.3873518288034
 21
-57.17282104171223
 31
0.0
  0
LINE
  5
1CF
330
1F
100
AcDbEntity
  8
3
  6
CENTERX2
 62
     3
370
    13
100
AcDbLine
 10
37.55694373250333
 20
-47.17283057851224
 30
0.0
 11
-0.4430550455966795
 21
-47.17283057851224
 31
0.0
  0
LINE
  5
1D0
330
1F
100
AcDbEntity
  8
3
  6
CENTERX2
 62
     3
370
    13
100
AcDbLine
 10
113.8298150778033
 20
-93.17281949201222
 30
0.0
 11
99.48846443300329
 21
-93.17281949201222
 31
0.0
  0
LINE
  5
1D1
330
1F
100
AcDbEntity
  8
3
  6
CENTERX2
 62
     3
370
    13
100
AcDbLine
 10
115.6514812438684
 20
105.8102193484074
 30
0.0
 11
126.6514812438683
 21
105.8102193484073
 31
0.0
  0
LINE
  5
1D2
330
1F
100
AcDbEntity
  8
3
  6
CENTERX2
 62
     3
370
    13
100
AcDbLine
 10
111.3569439112944
 20
-11.6728305785127
 30
0.0
 11
129.3569439112943
 21
-11.6728305785127
 31
0.0
  0
LINE
  5
1D3
330
1F
100
AcDbEntity
  8
3
  6
CENTERX2
 62
     3
370
    13
100
AcDbLine
 10
120.3569439112944
 20
-2.672830578512702
 30
0.0
 11
120.3569439112944
 21
-20.67283057851259
 31
0.0
  0
LINE
  5
1D4
330
1F
100
AcDbEntity
  8
3
  6
CENTERX2
 62
     3
370
    13
100
AcDbLine
 10
-118.5289427785534
 20
-37.55062032791236
 30
0.0
 11
-108.2758933453534
 21
-27.2975783453123
 31
0.0
  0
LINE
  5
1D5
330
1F
100
AcDbEntity
  8
3
  6
CENTERX2
 62
     3
370
    13
100
AcDbLine
 10
-157.7733642571604
 20
-37.55062032791236
 30
0.0
 11
-168.0264167635534
 21
-27.2975783453123
 31
0.0
  0
LINE
  5
1D6
330
1F
100
AcDbEntity
  8
3
  6
CENTERX2
 62
     3
370
    13
100
AcDbLine
 10
-168.0264167635534
 20
-87.04809058771232
 30
0.0
 11
-157.7733673303534
 21
-76.79503370391231
 31
0.0
  0
LINE
  5
1D7
330
1F
100
AcDbEntity
  8
3
  6
CENTERX2
 62
     3
370
    13
100
AcDbLine
 10
-138.1511579449534
 20
-102.0427476464729
 30
0.0
 11
-138.1511579449534
 21
-23.39104903711049
 31
0.0
  0
LINE
  5
1D8
330
1F
100
AcDbEntity
  8
3
  6
CENTERX2
 62
     3
370
    13
100
AcDbLine
 10
-108.2758933453534
 20
-87.04809058771232
 30
0.0
 11
-118.5289458517464
 21
-76.79503370391231
 31
0.0
  0
ARC
  5
1D9
330
1F
100
AcDbEntity
  8
3
  6
CENTERX2
 62
     3
370
    13
100
AcDbCircle
 10
-138.1511550543534
 20
-57.1728270159123
 30
0.0
 40
35.0
100
AcDbArc
 50
123.4385365871662
 51
147.4590799969852
  0
ARC
  5
1DA
330
1F
100
AcDbEntity
  8
3
  6
CENTERX2
 62
     3
370
    13
100
AcDbCircle
 10
-138.1511550543534
 20
-57.1728270159123
 30
0.0
 40
35.0
100
AcDbArc
 50
212.5409200030147
 51
237.4819750970491
  0
ARC
  5
1DB
330
1F
100
AcDbEntity
  8
3
  6
CENTERX2
 62
     3
370
    13
100
AcDbCircle
 10
-138.1511550543534
 20
-57.1728270159123
 30
0.0
 40
35.0
100
AcDbArc
 50
302.5180249029509
 51
326.0307189659583
  0
ARC
  5
1DC
330
1F
100
AcDbEntity
  8
3
  6
CENTERX2
 62
     3
370
    13
100
AcDbCircle
 10
-138.1511550543534
 20
-57.1728270159123
 30
0.0
 40
35.0
100
AcDbArc
 50
33.96928103404167
 51
56.56146341283382
  0
LINE
  5
1DD
330
1F
100
AcDbEntity
  8
9
  6
PHANTOM
 62
   140
370
    13
100
AcDbLine
 10
9.201849523013266
 20
-40.67283057851279
 30
0.0
 11
15.20184952301327
 21
-40.67283057851279
 31
0.0
  0
LINE
  5
1DE
330
1F
100
AcDbEntity
  8
9
  6
PHANTOM
 62
   140
370
    13
100
AcDbLine
 10
8.895753454293185
 20
-90.67283057851279
 30
0.0
 11
14.89575345429319
 21
-90.67283057851279
 31
0.0
  0
LINE
  5
1DF
330
1F
100
AcDbEntity
  8
9
  6
PHANTOM
 62
   140
370
    13
100
AcDbLine
 10
11.85694391130312
 20
-87.5103133666806
 30
0.0
 11
11.85694391130312
 21
-94.5103133666806
 31
0.0
  0
LINE
  5
1E0
330
1F
100
AcDbEntity
  8
9
  6
PHANTOM
 62
   140
370
    13
100
AcDbLine
 10
11.85694391130312
 20
-37.9227502338116
 30
0.0
 11
11.85694391130312
 21
-43.9227502338116
 31
0.0
  0
LINE
  5
1E1
330
1F
100
AcDbEntity
  8
9
  6
PHANTOM
 62
   140
370
    13
100
AcDbLine
 10
13.85694391130312
 20
-105.6728305785128
 30
0.0
 11
15.85694391130312
 21
-103.6728305785128
 31
0.0
  0
LINE
  5
1E2
330
1F
100
AcDbEntity
  8
9
  6
PHANTOM
 62
   140
370
    13
100
AcDbLine
 10
13.85694391130312
 20
-21.67283057851279
 30
0.0
 11
15.85694391130312
 21
-23.67283057851279
 31
0.0
  0
LINE
  5
1E3
330
1F
100
AcDbEntity
  8
9
  6
PHANTOM
 62
   140
370
    13
100
AcDbLine
 10
1.45694391130337
 20
-21.67283057851279
 30
0.0
 11
1.45694391130337
 21
-105.6728305785128
 31
0.0
  0
LINE
  5
1E4
330
1F
100
AcDbEntity
  8
9
  6
PHANTOM
 62
   140
370
    13
100
AcDbLine
 10
-0.1430560886968806
 20
-21.67283057851279
 30
0.0
 11
-0.1430560886968806
 21
-105.6728305785128
 31
0.0
  0
LINE
  5
1E5
330
1F
100
AcDbEntity
  8
9
  6
PHANTOM
 62
   140
370
    13
100
AcDbLine
 10
13.85694391130312
 20
-21.67283057851279
 30
0.0
 11
-0.1430560886968806
 21
-21.67283057851279
 31
0.0
  0
LINE
  5
1E6
330
1F
100
AcDbEntity
  8
9
  6
PHANTOM
 62
   140
370
    13
100
AcDbLine
 10
15.85694391130312
 20
-103.6728305785128
 30
0.0
 11
15.85694391130312
 21
-23.67283057851279
 31
0.0
  0
LINE
  5
1E7
330
1F
100
AcDbEntity
  8
9
  6
PHANTOM
 62
   140
370
    13
100
AcDbLine
 10
-0.1430560886968806
 20
-105.6728305785128
 30
0.0
 11
13.85694391130312
 21
-105.6728305785128
 31
0.0
  0
LINE
  5
1E8
330
1F
100
AcDbEntity
  8
8
  6
Continuous
 62
     3
370
    13
100
AcDbLine
 10
127.1569439113031
 20
60.81021934840734
 30
0.0
 11
127.1569439113031
 21
150.8102193484074
 31
0.0
  0
LINE
  5
1E9
330
1F
100
AcDbEntity
  8
8
  6
Continuous
 62
     3
370
    13
100
AcDbLine
 10
6.556943911294297
 20
60.81021934840734
 30
0.0
 11
127.1569439113031
 21
60.81021934840734
 31
0.0
  0
LINE
  5
1EA
330
1F
100
AcDbEntity
  8
8
  6
Continuous
 62
     3
370
    13
100
AcDbLine
 10
6.556943911294297
 20
150.8102193484074
 30
0.0
 11
6.556943911294297
 21
60.81021934840734
 31
0.0
  0
LINE
  5
1EB
330
1F
100
AcDbEntity
  8
8
  6
Continuous
 62
     3
370
    13
100
AcDbLine
 10
127.1569439113031
 20
150.8102193484074
 30
0.0
 11
6.556943911294297
 21
150.8102193484074
 31
0.0
  0
LINE
  5
1EC
330
1F
100
AcDbEntity
  8
2
  6
Continuous
 62
     7
370
    13
100
AcDbLine
 10
114.5569439112944
 20
49.10167123273484
 30
0.0
 11
117.0443365201243
 21
49.10167123273484
 31
0.0
  0
LINE
  5
1ED
330
1F
100
AcDbEntity
  8
2
  6
Continuous
 62
     7
370
    13
100
AcDbLine
 10
114.5569439112944
 20
41.01876746408024
 30
0.0
 11
114.5569439112944
 21
49.10167123273484
 31
0.0
  0
LINE
  5
1EE
330
1F
100
AcDbEntity
  8
2
  6
Continuous
 62
     7
370
    13
100
AcDbLine
 10
117.0443365201243
 20
41.01876746408024
 30
0.0
 11
114.5569439112944
 21
41.01876746408024
 31
0.0
  0
LINE
  5
1EF
330
1F
100
AcDbEntity
  8
2
  6
Continuous
 62
     7
370
    13
100
AcDbLine
 10
101.3569439112944
 20
47.0602193484074
 30
0.0
 11
102.1569439113032
 21
47.0602193484074
 31
0.0
  0
LINE
  5
1F0
330
1F
100
AcDbEntity
  8
2
  6
Continuous
 62
     7
370
    13
100
AcDbLine
 10
100.5569439112944
 20
46.26021934840745
 30
0.0
 11
101.3569439112944
 21
47.0602193484074
 31
0.0
  0
LINE
  5
1F1
330
1F
100
AcDbEntity
  8
2
  6
Continuous
 62
     7
370
    13
100
AcDbLine
 10
100.5569439112944
 20
43.86021934840764
 30
0.0
 11
100.5569439112944
 21
46.26021934840745
 31
0.0
  0
LINE
  5
1F2
330
1F
100
AcDbEntity
  8
2
  6
Continuous
 62
     7
370
    13
100
AcDbLine
 10
101.3569439112944
 20
43.0602193484074
 30
0.0
 11
100.5569439112944
 21
43.86021934840764
 31
0.0
  0
LINE
  5
1F3
330
1F
100
AcDbEntity
  8
2
  6
Continuous
 62
     7
370
    13
100
AcDbLine
 10
114.5569439112944
 20
43.0602193484074
 30
0.0
 11
106.9569439113034
 21
43.0602193484074
 31
0.0
  0
LINE
  5
1F4
330
1F
100
AcDbEntity
  8
2
  6
Continuous
 62
     7
370
    13
100
AcDbLine
 10
117.0443365201243
 20
47.08094529057135
 30
0.0
 11
114.5569439112944
 21
47.08094529057135
 31
0.0
  0
LINE
  5
1F5
330
1F
100
AcDbEntity
  8
2
  6
Continuous
 62
     7
370
    13
100
AcDbLine
 10
117.0443365201243
 20
43.03949340624385
 30
0.0
 11
114.5569439112944
 21
43.03949340624385
 31
0.0
  0
LINE
  5
1F6
330
1F
100
AcDbEntity
  8
2
  6
Continuous
 62
     7
370
    13
100
AcDbLine
 10
117.3569439112944
 20
48.09130826165304
 30
0.0
 11
117.3569439112944
 21
42.02913043516205
 31
0.0
  0
LINE
  5
1F7
330
1F
100
AcDbEntity
  8
2
  6
Continuous
 62
     7
370
    13
100
AcDbLine
 10
113.9004966552252
 20
43.0602193484074
 30
0.0
 11
113.9004966552252
 21
47.0602193484074
 31
0.0
  0
LINE
  5
1F8
330
1F
100
AcDbEntity
  8
2
  6
Continuous
 62
     7
370
    13
100
AcDbLine
 10
102.1569439113032
 20
43.0602193484074
 30
0.0
 11
101.3569439112944
 21
43.0602193484074
 31
0.0
  0
LINE
  5
1F9
330
1F
100
AcDbEntity
  8
2
  6
Continuous
 62
     7
370
    13
100
AcDbLine
 10
106.6443365201333
 20
41.0187674640799
 30
0.0
 11
103.7569439113032
 21
41.0187674640799
 31
0.0
  0
LINE
  5
1FA
330
1F
100
AcDbEntity
  8
2
  6
Continuous
 62
     7
370
    13
100
AcDbLine
 10
103.7569439113032
 20
41.0187674640799
 30
0.0
 11
103.7569439113032
 21
49.10167123273473
 31
0.0
  0
LINE
  5
1FB
330
1F
100
AcDbEntity
  8
2
  6
Continuous
 62
     7
370
    13
100
AcDbLine
 10
103.7569439113032
 20
49.10167123273473
 30
0.0
 11
106.6443365201333
 21
49.10167123273473
 31
0.0
  0
LINE
  5
1FC
330
1F
100
AcDbEntity
  8
2
  6
Continuous
 62
     7
370
    13
100
AcDbLine
 10
103.7569439113032
 20
43.03949340624374
 30
0.0
 11
106.6443365201333
 21
43.03949340624374
 31
0.0
  0
LINE
  5
1FD
330
1F
100
AcDbEntity
  8
2
  6
Continuous
 62
     7
370
    13
100
AcDbLine
 10
103.7569439113032
 20
47.08094529057101
 30
0.0
 11
106.6443365201333
 21
47.08094529057101
 31
0.0
  0
LINE
  5
1FE
330
1F
100
AcDbEntity
  8
2
  6
Continuous
 62
     7
370
    13
100
AcDbLine
 10
106.9569439113034
 20
48.09130826165281
 30
0.0
 11
106.9569439113034
 21
42.02913043516182
 31
0.0
  0
LINE
  5
1FF
330
1F
100
AcDbEntity
  8
2
  6
Continuous
 62
     7
370
    13
100
AcDbLine
 10
106.9569439113034
 20
47.0602193484074
 30
0.0
 11
114.5569439112944
 21
47.0602193484074
 31
0.0
  0
LINE
  5
200
330
1F
100
AcDbEntity
  8
2
  6
Continuous
 62
     7
370
    13
100
AcDbLine
 10
114.5569439112944
 20
164.5602193484074
 30
0.0
 11
106.9569439113034
 21
164.5602193484074
 31
0.0
  0
LINE
  5
201
330
1F
100
AcDbEntity
  8
2
  6
Continuous
 62
     7
370
    13
100
AcDbLine
 10
106.9569439113034
 20
169.591308261653
 30
0.0
 11
106.9569439113034
 21
163.5291304351619
 31
0.0
  0
LINE
  5
202
330
1F
100
AcDbEntity
  8
2
  6
Continuous
 62
     7
370
    13
100
AcDbLine
 10
106.6443365201333
 20
164.5394934062438
 30
0.0
 11
103.7569439113032
 21
164.5394934062438
 31
0.0
  0
LINE
  5
203
330
1F
100
AcDbEntity
  8
2
  6
Continuous
 62
     7
370
    13
100
AcDbLine
 10
106.6443365201333
 20
168.5809452905711
 30
0.0
 11
103.7569439113032
 21
168.5809452905711
 31
0.0
  0
LINE
  5
204
330
1F
100
AcDbEntity
  8
2
  6
Continuous
 62
     7
370
    13
100
AcDbLine
 10
106.6443365201333
 20
162.51876746408
 30
0.0
 11
103.7569439113032
 21
162.51876746408
 31
0.0
  0
LINE
  5
205
330
1F
100
AcDbEntity
  8
2
  6
Continuous
 62
     7
370
    13
100
AcDbLine
 10
103.7569439113032
 20
162.51876746408
 30
0.0
 11
103.7569439113032
 21
170.6016712327348
 31
0.0
  0
LINE
  5
206
330
1F
100
AcDbEntity
  8
2
  6
Continuous
 62
     7
370
    13
100
AcDbLine
 10
103.7569439113032
 20
170.6016712327348
 30
0.0
 11
106.6443365201333
 21
170.6016712327348
 31
0.0
  0
LINE
  5
207
330
1F
100
AcDbEntity
  8
2
  6
Continuous
 62
     7
370
    13
100
AcDbLine
 10
101.3569439112944
 20
168.5602193484074
 30
0.0
 11
102.1569439113032
 21
168.5602193484074
 31
0.0
  0
LINE
  5
208
330
1F
100
AcDbEntity
  8
2
  6
Continuous
 62
     7
370
    13
100
AcDbLine
 10
113.9004966552252
 20
164.5602193484074
 30
0.0
 11
113.9004966552252
 21
168.5602193484074
 31
0.0
  0
LINE
  5
209
330
1F
100
AcDbEntity
  8
2
  6
Continuous
 62
     7
370
    13
100
AcDbLine
 10
117.3569439112944
 20
169.5913082616528
 30
0.0
 11
117.3569439112944
 21
163.5291304351617
 31
0.0
  0
LINE
  5
20A
330
1F
100
AcDbEntity
  8
2
  6
Continuous
 62
     7
370
    13
100
AcDbLine
 10
114.5569439112944
 20
168.580945290571
 30
0.0
 11
117.0443365201243
 21
168.580945290571
 31
0.0
  0
LINE
  5
20B
330
1F
100
AcDbEntity
  8
2
  6
Continuous
 62
     7
370
    13
100
AcDbLine
 10
114.5569439112944
 20
164.5394934062435
 30
0.0
 11
117.0443365201243
 21
164.5394934062435
 31
0.0
  0
LINE
  5
20C
330
1F
100
AcDbEntity
  8
2
  6
Continuous
 62
     7
370
    13
100
AcDbLine
 10
106.9569439113034
 20
168.5602193484074
 30
0.0
 11
114.5569439112944
 21
168.5602193484074
 31
0.0
  0
LINE
  5
20D
330
1F
100
AcDbEntity
  8
2
  6
Continuous
 62
     7
370
    13
100
AcDbLine
 10
100.5569439112944
 20
167.7602193484071
 30
0.0
 11
101.3569439112944
 21
168.5602193484074
 31
0.0
  0
LINE
  5
20E
330
1F
100
AcDbEntity
  8
2
  6
Continuous
 62
     7
370
    13
100
AcDbLine
 10
100.5569439112944
 20
165.3602193484074
 30
0.0
 11
100.5569439112944
 21
167.7602193484071
 31
0.0
  0
LINE
  5
20F
330
1F
100
AcDbEntity
  8
2
  6
Continuous
 62
     7
370
    13
100
AcDbLine
 10
101.3569439112944
 20
164.5602193484074
 30
0.0
 11
100.5569439112944
 21
165.3602193484074
 31
0.0
  0
LINE
  5
210
330
1F
100
AcDbEntity
  8
2
  6
Continuous
 62
     7
370
    13
100
AcDbLine
 10
102.1569439113032
 20
164.5602193484074
 30
0.0
 11
101.3569439112944
 21
164.5602193484074
 31
0.0
  0
LINE
  5
211
330
1F
100
AcDbEntity
  8
2
  6
Continuous
 62
     7
370
    13
100
AcDbLine
 10
114.5569439112944
 20
170.6016712327345
 30
0.0
 11
117.0443365201243
 21
170.6016712327345
 31
0.0
  0
LINE
  5
212
330
1F
100
AcDbEntity
  8
2
  6
Continuous
 62
     7
370
    13
100
AcDbLine
 10
114.5569439112944
 20
162.5187674640799
 30
0.0
 11
114.5569439112944
 21
170.6016712327345
 31
0.0
  0
LINE
  5
213
330
1F
100
AcDbEntity
  8
2
  6
Continuous
 62
     7
370
    13
100
AcDbLine
 10
117.0443365201243
 20
162.5187674640799
 30
0.0
 11
114.5569439112944
 21
162.5187674640799
 31
0.0
  0
LINE
  5
214
330
1F
100
AcDbEntity
  8
2
  6
Continuous
 62
     7
370
    13
100
AcDbLine
 10
106.9569439113034
 20
-10.07283057851251
 30
0.0
 11
114.5569439112944
 21
-10.07283057851251
 31
0.0
  0
LINE
  5
215
330
1F
100
AcDbEntity
  8
2
  6
Continuous
 62
     7
370
    13
100
AcDbLine
 10
106.9569439113034
 20
-9.041741665266983
 30
0.0
 11
106.9569439113034
 21
-15.10391949175809
 31
0.0
  0
LINE
  5
216
330
1F
100
AcDbEntity
  8
2
  6
Continuous
 62
     7
370
    13
100
AcDbLine
 10
103.7569439113032
 20
-10.0521046363489
 30
0.0
 11
106.6443365201333
 21
-10.0521046363489
 31
0.0
  0
LINE
  5
217
330
1F
100
AcDbEntity
  8
2
  6
Continuous
 62
     7
370
    13
100
AcDbLine
 10
103.7569439113032
 20
-14.0935565206762
 30
0.0
 11
106.6443365201333
 21
-14.0935565206762
 31
0.0
  0
LINE
  5
218
330
1F
100
AcDbEntity
  8
2
  6
Continuous
 62
     7
370
    13
100
AcDbLine
 10
103.7569439113032
 20
-8.031378694185207
 30
0.0
 11
106.6443365201333
 21
-8.031378694185207
 31
0.0
  0
LINE
  5
219
330
1F
100
AcDbEntity
  8
2
  6
Continuous
 62
     7
370
    13
100
AcDbLine
 10
103.7569439113032
 20
-16.1142824628399
 30
0.0
 11
103.7569439113032
 21
-8.031378694185207
 31
0.0
  0
LINE
  5
21A
330
1F
100
AcDbEntity
  8
2
  6
Continuous
 62
     7
370
    13
100
AcDbLine
 10
106.6443365201333
 20
-16.1142824628399
 30
0.0
 11
103.7569439113032
 21
-16.1142824628399
 31
0.0
  0
LINE
  5
21B
330
1F
100
AcDbEntity
  8
2
  6
Continuous
 62
     7
370
    13
100
AcDbLine
 10
102.1569439113032
 20
-14.07283057851251
 30
0.0
 11
101.3569439112944
 21
-14.07283057851251
 31
0.0
  0
LINE
  5
21C
330
1F
100
AcDbEntity
  8
2
  6
Continuous
 62
     7
370
    13
100
AcDbLine
 10
113.9004966552252
 20
-14.07283057851251
 30
0.0
 11
113.9004966552252
 21
-10.07283057851251
 31
0.0
  0
LINE
  5
21D
330
1F
100
AcDbEntity
  8
2
  6
Continuous
 62
     7
370
    13
100
AcDbLine
 10
117.3569439112944
 20
-9.041741665266784
 30
0.0
 11
117.3569439112944
 21
-15.10391949175781
 31
0.0
  0
LINE
  5
21E
330
1F
100
AcDbEntity
  8
2
  6
Continuous
 62
     7
370
    13
100
AcDbLine
 10
117.0443365201243
 20
-14.093556520676
 30
0.0
 11
114.5569439112944
 21
-14.093556520676
 31
0.0
  0
LINE
  5
21F
330
1F
100
AcDbEntity
  8
2
  6
Continuous
 62
     7
370
    13
100
AcDbLine
 10
117.0443365201243
 20
-10.0521046363485
 30
0.0
 11
114.5569439112944
 21
-10.0521046363485
 31
0.0
  0
LINE
  5
220
330
1F
100
AcDbEntity
  8
2
  6
Continuous
 62
     7
370
    13
100
AcDbLine
 10
114.5569439112944
 20
-14.07283057851251
 30
0.0
 11
106.9569439113034
 21
-14.07283057851251
 31
0.0
  0
LINE
  5
221
330
1F
100
AcDbEntity
  8
2
  6
Continuous
 62
     7
370
    13
100
AcDbLine
 10
101.3569439112944
 20
-14.07283057851251
 30
0.0
 11
100.5569439112944
 21
-13.27283057851218
 31
0.0
  0
LINE
  5
222
330
1F
100
AcDbEntity
  8
2
  6
Continuous
 62
     7
370
    13
100
AcDbLine
 10
100.5569439112944
 20
-13.27283057851218
 30
0.0
 11
100.5569439112944
 21
-10.87283057851241
 31
0.0
  0
LINE
  5
223
330
1F
100
AcDbEntity
  8
2
  6
Continuous
 62
     7
370
    13
100
AcDbLine
 10
100.5569439112944
 20
-10.87283057851241
 30
0.0
 11
101.3569439112944
 21
-10.07283057851251
 31
0.0
  0
LINE
  5
224
330
1F
100
AcDbEntity
  8
2
  6
Continuous
 62
     7
370
    13
100
AcDbLine
 10
101.3569439112944
 20
-10.07283057851251
 30
0.0
 11
102.1569439113032
 21
-10.07283057851251
 31
0.0
  0
LINE
  5
225
330
1F
100
AcDbEntity
  8
2
  6
Continuous
 62
     7
370
    13
100
AcDbLine
 10
117.0443365201243
 20
-16.11428246283958
 30
0.0
 11
114.5569439112944
 21
-16.11428246283958
 31
0.0
  0
LINE
  5
226
330
1F
100
AcDbEntity
  8
2
  6
Continuous
 62
     7
370
    13
100
AcDbLine
 10
114.5569439112944
 20
-16.11428246283958
 30
0.0
 11
114.5569439112944
 21
-8.031378694185008
 31
0.0
  0
LINE
  5
227
330
1F
100
AcDbEntity
  8
2
  6
Continuous
 62
     7
370
    13
100
AcDbLine
 10
114.5569439112944
 20
-8.031378694185008
 30
0.0
 11
117.0443365201243
 21
-8.031378694185008
 31
0.0
  0
ARC
  5
228
330
1F
100
AcDbEntity
  8
2
  6
Continuous
 62
     7
370
    13
100
AcDbCircle
 10
115.5678679873984
 20
42.02913043516205
 30
0.0
 40
1.789075923895638
100
AcDbArc
 50
325.6157525319472
 51
34.38424746805279
  0
ARC
  5
229
330
1F
100
AcDbEntity
  8
2
  6
Continuous
 62
     7
370
    13
100
AcDbCircle
 10
110.6695513024641
 20
45.0602193484074
 30
0.0
 40
6.687392608829762
100
AcDbArc
 50
342.4120462260059
 51
17.58795377399739
  0
ARC
  5
22A
330
1F
100
AcDbEntity
  8
2
  6
Continuous
 62
     7
370
    13
100
AcDbCircle
 10
115.5678679873984
 20
48.09130826165304
 30
0.0
 40
1.789075923895574
100
AcDbArc
 50
325.6157525319502
 51
34.38424746805279
  0
ARC
  5
22B
330
1F
100
AcDbEntity
  8
2
  6
Continuous
 62
     7
370
    13
100
AcDbCircle
 10
105.1678679874074
 20
48.09130826165281
 30
0.0
 40
1.789075923895591
100
AcDbArc
 50
325.6157525319462
 51
34.38424746805681
  0
ARC
  5
22C
330
1F
100
AcDbEntity
  8
2
  6
Continuous
 62
     7
370
    13
100
AcDbCircle
 10
100.2695513024731
 20
45.06021934840734
 30
0.0
 40
6.687392608829724
100
AcDbArc
 50
342.4120462260053
 51
17.58795377399521
  0
ARC
  5
22D
330
1F
100
AcDbEntity
  8
2
  6
Continuous
 62
     7
370
    13
100
AcDbCircle
 10
105.1678679874074
 20
42.02913043516182
 30
0.0
 40
1.789075923895656
100
AcDbArc
 50
325.6157525319432
 51
34.38424746805681
  0
ARC
  5
22E
330
1F
100
AcDbEntity
  8
2
  6
Continuous
 62
     7
370
    13
100
AcDbCircle
 10
105.1678679874074
 20
169.591308261653
 30
0.0
 40
1.789075923895656
100
AcDbArc
 50
325.6157525319432
 51
34.38424746805381
  0
ARC
  5
22F
330
1F
100
AcDbEntity
  8
2
  6
Continuous
 62
     7
370
    13
100
AcDbCircle
 10
100.2695513024731
 20
166.5602193484074
 30
0.0
 40
6.687392608829708
100
AcDbArc
 50
342.4120462260057
 51
17.58795377399566
  0
ARC
  5
230
330
1F
100
AcDbEntity
  8
2
  6
Continuous
 62
     7
370
    13
100
AcDbCircle
 10
105.1678679874074
 20
163.5291304351619
 30
0.0
 40
1.789075923895656
100
AcDbArc
 50
325.6157525319432
 51
34.38424746805681
  0
ARC
  5
231
330
1F
100
AcDbEntity
  8
2
  6
Continuous
 62
     7
370
    13
100
AcDbCircle
 10
115.5678679873984
 20
163.529130435162
 30
0.0
 40
1.789075923895831
100
AcDbArc
 50
325.6157525319382
 51
34.38424746804226
  0
ARC
  5
232
330
1F
100
AcDbEntity
  8
2
  6
Continuous
 62
     7
370
    13
100
AcDbCircle
 10
110.6695513024641
 20
166.5602193484074
 30
0.0
 40
6.687392608829882
100
AcDbArc
 50
342.4120462260026
 51
17.58795377399414
  0
ARC
  5
233
330
1F
100
AcDbEntity
  8
2
  6
Continuous
 62
     7
370
    13
100
AcDbCircle
 10
115.5678679873984
 20
169.5913082616528
 30
0.0
 40
1.789075923895638
100
AcDbArc
 50
325.6157525319472
 51
34.38424746805132
  0
ARC
  5
234
330
1F
100
AcDbEntity
  8
2
  6
Continuous
 62
     7
370
    13
100
AcDbCircle
 10
105.1678679874074
 20
-15.10391949175809
 30
0.0
 40
1.789075923895591
100
AcDbArc
 50
325.6157525319462
 51
34.38424746805605
  0
ARC
  5
235
330
1F
100
AcDbEntity
  8
2
  6
Continuous
 62
     7
370
    13
100
AcDbCircle
 10
100.2695513024731
 20
-12.07283057851251
 30
0.0
 40
6.68739260882975
100
AcDbArc
 50
342.4120462260046
 51
17.58795377399475
  0
ARC
  5
236
330
1F
100
AcDbEntity
  8
2
  6
Continuous
 62
     7
370
    13
100
AcDbCircle
 10
105.1678679874074
 20
-9.041741665266983
 30
0.0
 40
1.789075923895656
100
AcDbArc
 50
325.6157525319432
 51
34.3842474680531
  0
ARC
  5
237
330
1F
100
AcDbEntity
  8
2
  6
Continuous
 62
     7
370
    13
100
AcDbCircle
 10
115.5678679873984
 20
-9.041741665266784
 30
0.0
 40
1.78907592389559
100
AcDbArc
 50
325.6157525319495
 51
34.38424746805202
  0
ARC
  5
238
330
1F
100
AcDbEntity
  8
2
  6
Continuous
 62
     7
370
    13
100
AcDbCircle
 10
110.6695513024641
 20
-12.07283057851251
 30
0.0
 40
6.687392608829744
100
AcDbArc
 50
342.4120462260063
 51
17.58795377399785
  0
ARC
  5
239
330
1F
100
AcDbEntity
  8
2
  6
Continuous
 62
     7
370
    13
100
AcDbCircle
 10
115.5678679873984
 20
-15.10391949175781
 30
0.0
 40
1.789075923895622
100
AcDbArc
 50
325.615752531948
 51
34.38424746805279
  0
LINE
  5
23A
330
1F
100
AcDbEntity
  8
2
  6
CENTERX2
 62
     3
370
    13
100
AcDbLine
 10
117.3569439112944
 20
45.0602193484074
 30
0.0
 11
100.5569439112944
 21
45.0602193484074
 31
0.0
  0
LINE
  5
23B
330
1F
100
AcDbEntity
  8
2
  6
CENTERX2
 62
     3
370
    13
100
AcDbLine
 10
100.5569439112944
 20
166.5602193484074
 30
0.0
 11
117.3569439112944
 21
166.5602193484074
 31
0.0
  0
LINE
  5
23C
330
1F
100
AcDbEntity
  8
2
  6
CENTERX2
 62
     3
370
    13
100
AcDbLine
 10
117.3569439112944
 20
-12.07283057851251
 30
0.0
 11
100.5569439112944
 21
-12.07283057851251
 31
0.0
  0
LINE
  5
23D
330
1F
100
AcDbEntity
  8
0
  6
Continuous
 62
     2
370
    13
100
AcDbLine
 10
166.8569439113031
 20
-105.6728305785128
 30
0.0
 11
166.8569439113031
 21
-5.672830578512588
 31
0.0
  0
INSERT
  5
244
330
1F
100
AcDbEntity
  8
0
 62
     2
100
AcDbBlockReference
  2
_OPEN30
 10
166.8569439113031
 20
-105.6728305785128
 30
0.0
 41
6.000005615230571
 42
5.999978736447286
 50
270.0
  0
INSERT
  5
245
330
1F
100
AcDbEntity
  8
0
 62
     2
100
AcDbBlockReference
  2
_OPEN30
 10
166.8569439113031
 20
-5.672830578512588
 30
0.0
 41
6.000005615230571
 42
5.999978736447286
 50
90.0
  0
LINE
  5
246
330
1F
100
AcDbEntity
  8
0
  6
Continuous
 62
     2
370
    13
100
AcDbLine
 10
146.8569439113031
 20
60.81021934840734
 30
0.0
 11
146.8569439113031
 21
150.8102193484074
 31
0.0
  0
INSERT
  5
247
330
1F
100
AcDbEntity
  8
0
 62
     2
100
AcDbBlockReference
  2
_OPEN30
 10
146.8569439113031
 20
60.81021934840734
 30
0.0
 41
6.000005615230571
 42
5.999978736447286
 50
270.0
  0
INSERT
  5
248
330
1F
100
AcDbEntity
  8
0
 62
     2
100
AcDbBlockReference
  2
_OPEN30
 10
146.8569439113031
 20
150.8102193484074
 30
0.0
 41
6.000005615230571
 42
5.999978736447286
 50
90.0
  0
LINE
  5
249
330
1F
100
AcDbEntity
  8
0
  6
Continuous
 62
     2
370
    13
100
AcDbLine
 10
166.8569439113031
 20
47.71021934840743
 30
0.0
 11
166.8569439113031
 21
163.9102193484073
 31
0.0
  0
INSERT
  5
24A
330
1F
100
AcDbEntity
  8
0
 62
     2
100
AcDbBlockReference
  2
_OPEN30
 10
166.8569439113031
 20
47.71021934840743
 30
0.0
 41
6.000005615230571
 42
5.999978736447286
 50
270.0
  0
INSERT
  5
24B
330
1F
100
AcDbEntity
  8
0
 62
     2
100
AcDbBlockReference
  2
_OPEN30
 10
166.8569439113031
 20
163.9102193484073
 30
0.0
 41
6.000005615230571
 42
5.999978736447286
 50
90.0
  0
LINE
  5
24C
330
1F
100
AcDbEntity
  8
0
  6
Continuous
 62
     2
370
    13
100
AcDbLine
 10
6.856943911303119
 20
13.92716942148749
 30
0.0
 11
126.8569439113031
 21
13.92716942148749
 31
0.0
  0
INSERT
  5
24D
330
1F
100
AcDbEntity
  8
0
 62
     2
100
AcDbBlockReference
  2
_OPEN30
 10
6.856943911303119
 20
13.92716942148749
 30
0.0
 41
6.000005615230571
 42
5.999978736447286
 50
180.0
  0
INSERT
  5
24E
330
1F
100
AcDbEntity
  8
0
 62
     2
100
AcDbBlockReference
  2
_OPEN30
 10
126.8569439113031
 20
13.92716942148749
 30
0.0
 41
6.000005615230571
 42
5.999978736447286
 50
360.0
  0
LINE
  5
24F
330
1F
100
AcDbEntity
  8
0
  6
Continuous
 62
     2
370
    13
100
AcDbLine
 10
21.85694391130312
 20
-125.6728305785128
 30
0.0
 11
111.8569439113031
 21
-125.6728305785128
 31
0.0
  0
INSERT
  5
250
330
1F
100
AcDbEntity
  8
0
 62
     2
100
AcDbBlockReference
  2
_OPEN30
 10
21.85694391130312
 20
-125.6728305785128
 30
0.0
 41
6.000005615230571
 42
5.999978736447286
 50
180.0
  0
INSERT
  5
251
330
1F
100
AcDbEntity
  8
0
 62
     2
100
AcDbBlockReference
  2
_OPEN30
 10
111.8569439113031
 20
-125.6728305785128
 30
0.0
 41
6.000005615230571
 42
5.999978736447286
 50
360.0
  0
LINE
  5
252
330
1F
100
AcDbEntity
  8
0
  6
Continuous
 62
     2
370
    13
100
AcDbLine
 10
111.8569439113031
 20
-125.6728305785128
 30
0.0
 11
126.8569439113031
 21
-125.6728305785128
 31
0.0
  0
INSERT
  5
253
330
1F
100
AcDbEntity
  8
0
 62
     2
100
AcDbBlockReference
  2
_OPEN30
 10
111.8569439113031
 20
-125.6728305785128
 30
0.0
 41
6.000005615230571
 42
5.999978736447286
 50
180.0
  0
INSERT
  5
254
330
1F
100
AcDbEntity
  8
0
 62
     2
100
AcDbBlockReference
  2
_OPEN30
 10
126.8569439113031
 20
-125.6728305785128
 30
0.0
 41
6.000005615230571
 42
5.999978736447286
 50
360.0
  0
LINE
  5
255
330
1F
100
AcDbEntity
  8
0
  6
Continuous
 62
     2
370
    13
100
AcDbLine
 10
146.8569439113031
 20
-90.67283057851279
 30
0.0
 11
146.8569439113031
 21
-50.67283057851279
 31
0.0
  0
INSERT
  5
256
330
1F
100
AcDbEntity
  8
0
 62
     2
100
AcDbBlockReference
  2
_OPEN30
 10
146.8569439113031
 20
-90.67283057851279
 30
0.0
 41
6.000005615230571
 42
5.999978736447286
 50
270.0
  0
INSERT
  5
257
330
1F
100
AcDbEntity
  8
0
 62
     2
100
AcDbBlockReference
  2
_OPEN30
 10
146.8569439113031
 20
-50.67283057851279
 30
0.0
 41
6.000005615230571
 42
5.999978736447286
 50
90.0
  0
LINE
  5
258
330
1F
100
AcDbEntity
  8
0
  6
Continuous
 62
     2
370
    13
100
AcDbLine
 10
146.8569439113031
 20
-90.67283057851279
 30
0.0
 11
146.8569439113031
 21
-105.6728305785128
 31
0.0
  0
INSERT
  5
259
330
1F
100
AcDbEntity
  8
0
 62
     2
100
AcDbBlockReference
  2
_OPEN30
 10
146.8569439113031
 20
-90.67283057851279
 30
0.0
 41
6.000005615230571
 42
5.999978736447286
 50
90.0
  0
INSERT
  5
25A
330
1F
100
AcDbEntity
  8
0
 62
     2
100
AcDbBlockReference
  2
_OPEN30
 10
146.8569439113031
 20
-105.6728305785128
 30
0.0
 41
6.000005615230571
 42
5.999978736447286
 50
270.0
  0
LINE
  5
25B
330
1F
100
AcDbEntity
  8
0
  6
Continuous
 62
     2
370
    13
100
AcDbLine
 10
125.8569439113031
 20
-105.6728305785128
 30
0.0
 11
168.8569439113031
 21
-105.6728305785128
 31
0.0
  0
LINE
  5
25C
330
1F
100
AcDbEntity
  8
0
  6
Continuous
 62
     2
370
    13
100
AcDbLine
 10
122.3569439112944
 20
-5.672830578512588
 30
0.0
 11
168.8569439113031
 21
-5.672830578512588
 31
0.0
  0
LINE
  5
25D
330
1F
100
AcDbEntity
  8
0
  6
Continuous
 62
     2
370
    13
100
AcDbLine
 10
129.1569439113031
 20
60.81021934840734
 30
0.0
 11
148.8569439113031
 21
60.81021934840734
 31
0.0
  0
LINE
  5
25E
330
1F
100
AcDbEntity
  8
0
  6
Continuous
 62
     2
370
    13
100
AcDbLine
 10
129.1569439113031
 20
150.8102193484074
 30
0.0
 11
148.8569439113031
 21
150.8102193484074
 31
0.0
  0
LINE
  5
25F
330
1F
100
AcDbEntity
  8
0
  6
Continuous
 62
     2
370
    13
100
AcDbLine
 10
128.8569439113031
 20
47.71021934840743
 30
0.0
 11
168.8569439113031
 21
47.71021934840743
 31
0.0
  0
LINE
  5
260
330
1F
100
AcDbEntity
  8
0
  6
Continuous
 62
     2
370
    13
100
AcDbLine
 10
128.8569439113031
 20
163.9102193484073
 30
0.0
 11
168.8569439113031
 21
163.9102193484073
 31
0.0
  0
LINE
  5
261
330
1F
100
AcDbEntity
  8
0
  6
Continuous
 62
     2
370
    13
100
AcDbLine
 10
6.856943911303119
 20
-19.27283057851258
 30
0.0
 11
6.856943911303119
 21
15.92716942148749
 31
0.0
  0
LINE
  5
262
330
1F
100
AcDbEntity
  8
0
  6
Continuous
 62
     2
370
    13
100
AcDbLine
 10
126.8569439113031
 20
-17.07283057851271
 30
0.0
 11
126.8569439113031
 21
15.92716942148749
 31
0.0
  0
LINE
  5
263
330
1F
100
AcDbEntity
  8
0
  6
Continuous
 62
     2
370
    13
100
AcDbLine
 10
21.85694391130312
 20
-97.17283057851279
 30
0.0
 11
21.85694391130312
 21
-127.6728305785128
 31
0.0
  0
LINE
  5
264
330
1F
100
AcDbEntity
  8
0
  6
Continuous
 62
     2
370
    13
100
AcDbLine
 10
111.8569439113031
 20
-97.17283057851279
 30
0.0
 11
111.8569439113031
 21
-127.6728305785128
 31
0.0
  0
LINE
  5
265
330
1F
100
AcDbEntity
  8
0
  6
Continuous
 62
     2
370
    13
100
AcDbLine
 10
126.8569439113031
 20
-104.6728305785128
 30
0.0
 11
126.8569439113031
 21
-127.6728305785128
 31
0.0
  0
LINE
  5
266
330
1F
100
AcDbEntity
  8
0
  6
Continuous
 62
     2
370
    13
100
AcDbLine
 10
118.3569439113031
 20
-90.67283057851279
 30
0.0
 11
148.8569439113031
 21
-90.67283057851279
 31
0.0
  0
LINE
  5
267
330
1F
100
AcDbEntity
  8
0
  6
Continuous
 62
     2
370
    13
100
AcDbLine
 10
118.3569439113031
 20
-50.67283057851279
 30
0.0
 11
148.8569439113031
 21
-50.67283057851279
 31
0.0
  0
LINE
  5
268
330
1F
100
AcDbEntity
  8
0
  6
Continuous
 62
     2
370
    13
100
AcDbLine
 10
125.8569439113031
 20
-105.6728305785128
 30
0.0
 11
148.8569439113031
 21
-105.6728305785128
 31
0.0
  0
LINE
  5
269
330
1F
100
AcDbEntity
  8
0
  6
Continuous
 62
     2
370
    13
100
AcDbLine
 10
-21.02392337511549
 20
3.927169421487494
 30
0.0
 11
-1.023923375115487
 21
3.927169421487491
 31
0.0
  0
LINE
  5
26A
330
1F
100
AcDbEntity
  8
0
  6
Continuous
 62
     2
370
    13
100
AcDbLine
 10
154.2371945327185
 20
3.927169421487491
 30
0.0
 11
134.2371945327185
 21
3.927169421487491
 31
0.0
  0
LINE
  5
26B
330
1F
100
AcDbEntity
  8
0
  6
Continuous
 62
     2
370
    13
100
AcDbLine
 10
170.865558273117
 20
-126.6325115946348
 30
0.0
 11
146.865558273117
 21
-126.6325115946348
 31
0.0
  0
LINE
  5
26C
330
1F
100
AcDbEntity
  8
0
  6
Continuous
 62
     2
370
    13
100
AcDbLine
 10
-12.30342320836451
 20
-131.0376041872275
 30
0.0
 11
-105.9034232083645
 21
-131.0376041872275
 31
0.0
  0
LINE
  5
26D
330
1F
100
AcDbEntity
  8
0
  6
Continuous
 62
     2
370
    13
100
AcDbLine
 10
-1.023923375115487
 20
3.927169421487491
 30
0.0
 11
10.21213797537246
 21
-8.097014278625679
 31
0.0
  0
INSERT
  5
26E
330
1F
100
AcDbEntity
  8
0
 62
     2
100
AcDbBlockReference
  2
_OPEN30
 10
10.21213797537246
 20
-8.097014278625679
 30
0.0
 41
6.000005615230571
 42
5.999978736447286
 50
313.0594006739445
  0
LINE
  5
26F
330
1F
100
AcDbEntity
  8
0
  6
Continuous
 62
     2
370
    13
100
AcDbLine
 10
134.2371945327185
 20
3.927169421487491
 30
0.0
 11
124.3453068953771
 21
-7.190313349633733
 31
0.0
  0
INSERT
  5
270
330
1F
100
AcDbEntity
  8
0
 62
     2
100
AcDbBlockReference
  2
_OPEN30
 10
124.3453068953771
 20
-7.190313349633733
 30
0.0
 41
6.000005615230571
 42
5.999978736447286
 50
228.3386024344954
  0
LINE
  5
271
330
1F
100
AcDbEntity
  8
0
  6
Continuous
 62
     2
370
    13
100
AcDbLine
 10
146.865558273117
 20
-126.6325115946348
 30
0.0
 11
113.9496479166514
 21
-92.82238633401187
 31
0.0
  0
INSERT
  5
272
330
1F
100
AcDbEntity
  8
0
 62
     2
100
AcDbBlockReference
  2
_OPEN30
 10
113.9496479166514
 20
-92.82238633401187
 30
0.0
 41
6.000005615230571
 42
5.999978736447286
 50
134.2322086471571
  0
LINE
  5
273
330
1F
100
AcDbEntity
  8
0
  6
Continuous
 62
     2
370
    13
100
AcDbLine
 10
-0.1430560886968806
 20
-100.6513362871831
 30
0.0
 11
-12.30342320836451
 21
-131.0376041872275
 31
0.0
  0
INSERT
  5
274
330
1F
100
AcDbEntity
  8
0
 62
     2
100
AcDbBlockReference
  2
_OPEN30
 10
-0.1430560886968806
 20
-100.6513362871831
 30
0.0
 41
6.000005615230571
 42
5.999978736447286
 50
68.18906577598585
  0
LINE
  5
275
330
1F
100
AcDbEntity
  8
3
  6
DASHED2
 62
     4
370
    18
100
AcDbLine
 10
36.55694356860329
 20
-58.67283153211221
 30
0.0
 11
32.55694291300335
 21
-58.67283153211221
 31
0.0
  0
LINE
  5
276
330
1F
100
AcDbEntity
  8
3
  6
DASHED2
 62
     4
370
    18
100
AcDbLine
 10
32.55694291300335
 20
-35.67282962481212
 30
0.0
 11
36.55694356860329
 21
-35.67282962481212
 31
0.0
  0
LINE
  5
277
330
1F
100
AcDbEntity
  8
3
  6
DASHED2
 62
     4
370
    18
100
AcDbLine
 10
90.55694310670344
 20
-97.17282759821225
 30
0.0
 11
90.55694310670344
 21
-87.17282223381224
 31
0.0
  0
LINE
  5
278
330
1F
100
AcDbEntity
  8
3
  6
DASHED2
 62
     4
370
    18
100
AcDbLine
 10
104.8569430292033
 20
-97.17282759821225
 30
0.0
 11
104.8569430292033
 21
-98.17282962481224
 31
0.0
  0
LINE
  5
279
330
1F
100
AcDbEntity
  8
3
  6
DASHED2
 62
     4
370
    18
100
AcDbLine
 10
93.25694410800327
 20
-98.17282962481224
 30
0.0
 11
93.25694410800327
 21
-97.17282759821225
 31
0.0
  0
ARC
  5
27A
330
1F
100
AcDbEntity
  8
3
  6
DASHED2
 62
     4
370
    18
100
AcDbCircle
 10
108.9359596147034
 20
-90.97282578691224
 30
0.0
 40
1.300005937319932
100
AcDbArc
 50
16.60131543940037
 51
89.99961862239999
  0
ARC
  5
27B
330
1F
100
AcDbEntity
  8
3
  6
DASHED2
 62
     4
370
    18
100
AcDbCircle
 10
108.9359920734033
 20
-95.37285078471226
 30
0.0
 40
1.299968349920761
100
AcDbArc
 50
269.9989507786005
 51
343.3992340394004
  0
LINE
  5
27C
330
1F
100
AcDbEntity
  8
3
  6
DASHED2
 62
     4
370
    18
100
AcDbLine
 10
108.9359682680034
 20
-96.67281913441221
 30
0.0
 11
105.5569437027033
 21
-96.67281913441221
 31
0.0
  0
LINE
  5
27D
330
1F
100
AcDbEntity
  8
3
  6
DASHED2
 62
     4
370
    18
100
AcDbLine
 10
105.5569437027033
 20
-89.67281984961224
 30
0.0
 11
108.9359682680034
 21
-89.67281984961224
 31
0.0
  0
ARC
  5
27E
330
1F
100
AcDbEntity
  8
3
  6
DASHED2
 62
     4
370
    18
100
AcDbCircle
 10
101.5569617534032
 20
-93.17282694261226
 30
0.0
 40
8.999980906220866
100
AcDbArc
 50
343.3984290371001
 51
16.60157096290004
  0
LINE
  5
27F
330
1F
100
AcDbEntity
  8
3
  6
DASHED2
 62
     4
370
    18
100
AcDbLine
 10
65.05694358350331
 20
-64.67281388921222
 30
0.0
 11
70.55694355370326
 21
-64.67281388921222
 31
0.0
  0
LINE
  5
280
330
1F
100
AcDbEntity
  8
3
  6
DASHED2
 62
     4
370
    18
100
AcDbLine
 10
65.05694358350331
 20
-67.17281150501222
 30
0.0
 11
70.55694355370326
 21
-67.17281150501222
 31
0.0
  0
LINE
  5
281
330
1F
100
AcDbEntity
  8
3
  6
DASHED2
 62
     4
370
    18
100
AcDbLine
 10
65.05694358350331
 20
-82.17282700221224
 30
0.0
 11
70.55694355370326
 21
-82.17282700221224
 31
0.0
  0
LINE
  5
282
330
1F
100
AcDbEntity
  8
3
  6
DASHED2
 62
     4
370
    18
100
AcDbLine
 10
65.05694358350331
 20
-47.17283057851224
 30
0.0
 11
70.55694355370326
 21
-47.17283057851224
 31
0.0
  0
LINE
  5
283
330
1F
100
AcDbEntity
  8
3
  6
DASHED2
 62
     4
370
    18
100
AcDbLine
 10
65.05694358350331
 20
-49.67282819431224
 30
0.0
 11
70.55694355370326
 21
-49.67282819431224
 31
0.0
  0
LINE
  5
284
330
1F
100
AcDbEntity
  8
3
  6
DASHED2
 62
     4
370
    18
100
AcDbLine
 10
65.05694358350331
 20
-87.17282223381224
 30
0.0
 11
65.05694358350331
 21
-27.17281984961217
 31
0.0
  0
LINE
  5
285
330
1F
100
AcDbEntity
  8
3
  6
DASHED2
 62
     4
370
    18
100
AcDbLine
 10
65.05694358350331
 20
-32.17281508131222
 30
0.0
 11
70.55694355370326
 21
-32.17281508131222
 31
0.0
  0
LINE
  5
286
330
1F
100
AcDbEntity
  8
3
  6
DASHED2
 62
     4
370
    18
100
AcDbLine
 10
36.55694356860329
 20
-27.17281984961217
 30
0.0
 11
36.55694356860329
 21
-87.17282223381224
 31
0.0
  0
LINE
  5
287
330
1F
100
AcDbEntity
  8
3
  6
DASHED2
 62
     4
370
    18
100
AcDbLine
 10
32.55694291300335
 20
-58.67283153211221
 30
0.0
 11
32.55694291300335
 21
-35.67282962481212
 31
0.0
  0
LINE
  5
288
330
1F
100
AcDbEntity
  8
3
  6
DASHED2
 62
     4
370
    18
100
AcDbLine
 10
70.55694355370326
 20
-27.17281984961217
 30
0.0
 11
70.55694355370326
 21
-87.17282223381224
 31
0.0
  0
LINE
  5
289
330
1F
100
AcDbEntity
  8
3
  6
DASHED2
 62
     4
370
    18
100
AcDbLine
 10
108.5569423318033
 20
-87.17282223381224
 30
0.0
 11
36.55694356860329
 21
-87.17282223381224
 31
0.0
  0
LINE
  5
28A
330
1F
100
AcDbEntity
  8
3
  6
DASHED2
 62
     4
370
    18
100
AcDbLine
 10
108.5569423318033
 20
-27.17281984961217
 30
0.0
 11
108.5569423318033
 21
-87.17282223381224
 31
0.0
  0
LINE
  5
28B
330
1F
100
AcDbEntity
  8
3
  6
DASHED2
 62
     4
370
    18
100
AcDbLine
 10
108.5569423318033
 20
-27.17281984961217
 30
0.0
 11
36.55694356860329
 21
-27.17281984961217
 31
0.0
  0
LINE
  5
28C
330
1F
100
AcDbEntity
  8
3
  6
DASHED2
 62
     4
370
    18
100
AcDbLine
 10
104.5569454015034
 20
-96.57281744161222
 30
0.0
 11
93.0569444478034
 21
-96.57281744161222
 31
0.0
  0
LINE
  5
28D
330
1F
100
AcDbEntity
  8
3
  6
DASHED2
 62
     4
370
    18
100
AcDbLine
 10
104.5569454015034
 20
-96.57281744161222
 30
0.0
 11
104.5569454015034
 21
-87.17282223381224
 31
0.0
  0
LINE
  5
28E
330
1F
100
AcDbEntity
  8
3
  6
DASHED2
 62
     4
370
    18
100
AcDbLine
 10
105.5569437027033
 20
-88.37282764591222
 30
0.0
 11
104.5569454015034
 21
-88.37282764591222
 31
0.0
  0
LINE
  5
28F
330
1F
100
AcDbEntity
  8
3
  6
DASHED2
 62
     4
370
    18
100
AcDbLine
 10
105.5569437027033
 20
-88.37282764591222
 30
0.0
 11
105.5569437027033
 21
-97.17282759821225
 31
0.0
  0
LINE
  5
290
330
1F
100
AcDbEntity
  8
3
  6
DASHED2
 62
     4
370
    18
100
AcDbLine
 10
93.0569444478034
 20
-97.17282759821225
 30
0.0
 11
93.0569444478034
 21
-87.17282223381224
 31
0.0
  0
LINE
  5
291
330
1F
100
AcDbEntity
  8
3
  6
DASHED2
 62
     4
370
    18
100
AcDbLine
 10
90.55694496930334
 20
-97.17282759821225
 30
0.0
 11
105.5569437027033
 21
-97.17282759821225
 31
0.0
  0
LINE
  5
292
330
1F
100
AcDbEntity
  8
3
  6
DASHED2
 62
     4
370
    18
100
AcDbLine
 10
93.25694410800327
 20
-98.17282962481224
 30
0.0
 11
104.8569430292033
 21
-98.17282962481224
 31
0.0
  0
LINE
  5
293
330
1F
100
AcDbEntity
  8
3
  6
DASHED2
 62
     4
370
    18
100
AcDbLine
 10
106.4569440365034
 20
-89.67281984961224
 30
0.0
 11
106.4569440365034
 21
-96.67281913441221
 31
0.0
  0
LINE
  5
294
330
1F
100
AcDbEntity
  8
3
  6
DASHED2
 62
     4
370
    18
100
AcDbLine
 10
107.4569423378033
 20
-89.67281984961224
 30
0.0
 11
107.4569423378033
 21
-96.67281913441221
 31
0.0
  0
LINE
  5
295
330
1F
100
AcDbEntity
  8
3
  6
DASHED2
 62
     4
370
    18
100
AcDbLine
 10
28.35694391129437
 20
-42.17283534681231
 30
0.0
 11
32.55694291300335
 21
-42.17283534681231
 31
0.0
  0
LINE
  5
296
330
1F
100
AcDbEntity
  8
3
  6
DASHED2
 62
     4
370
    18
100
AcDbLine
 10
32.55694291300335
 20
-52.17282581011224
 30
0.0
 11
28.35694391129437
 21
-52.17282581011224
 31
0.0
  0
LINE
  5
297
330
1F
100
AcDbEntity
  8
3
  6
Continuous
 62
     7
370
    13
100
AcDbLine
 10
126.2502772446272
 20
150.8102193484074
 30
0.0
 11
126.1769439112942
 21
156.3102193484073
 31
0.0
  0
LINE
  5
298
330
1F
100
AcDbEntity
  8
3
  6
Continuous
 62
     7
370
    13
100
AcDbLine
 10
126.1769439112942
 20
156.3102193484073
 30
0.0
 11
114.5369439112942
 21
156.3102193484073
 31
0.0
  0
LINE
  5
299
330
1F
100
AcDbEntity
  8
3
  6
Continuous
 62
     7
370
    13
100
AcDbLine
 10
116.3069439112944
 20
157.8102193484073
 30
0.0
 11
116.3069439112944
 21
160.3102193484073
 31
0.0
  0
LINE
  5
29A
330
1F
100
AcDbEntity
  8
3
  6
Continuous
 62
     7
370
    13
100
AcDbLine
 10
114.4636105779614
 20
60.81021934840734
 30
0.0
 11
114.5369439112942
 21
55.31021934840734
 31
0.0
  0
LINE
  5
29B
330
1F
100
AcDbEntity
  8
3
  6
Continuous
 62
     7
370
    13
100
AcDbLine
 10
117.3569439112944
 20
51.31021934840734
 30
0.0
 11
117.3569439112944
 21
51.16021934840725
 31
0.0
  0
LINE
  5
29C
330
1F
100
AcDbEntity
  8
3
  6
Continuous
 62
     7
370
    13
100
AcDbLine
 10
123.3569439112943
 20
51.31021934840734
 30
0.0
 11
123.3569439112943
 21
51.16021934840725
 31
0.0
  0
LINE
  5
29D
330
1F
100
AcDbEntity
  8
3
  6
Continuous
 62
     7
370
    13
100
AcDbLine
 10
118.1208759337942
 20
160.4602193484074
 30
0.0
 11
118.1208759337942
 21
160.3102193484073
 31
0.0
  0
LINE
  5
29E
330
1F
100
AcDbEntity
  8
3
  6
Continuous
 62
     7
370
    13
100
AcDbLine
 10
123.3569439112943
 20
47.71021934840743
 30
0.0
 11
123.3569439112943
 21
44.81021934840734
 31
0.0
  0
LINE
  5
29F
330
1F
100
AcDbEntity
  8
3
  6
Continuous
 62
     7
370
    13
100
AcDbLine
 10
117.3569439112944
 20
47.71021934840743
 30
0.0
 11
117.3569439112944
 21
44.81021934840734
 31
0.0
  0
LINE
  5
2A0
330
1F
100
AcDbEntity
  8
3
  6
Continuous
 62
     7
370
    13
100
AcDbLine
 10
122.5930118887942
 20
160.3102193484073
 30
0.0
 11
122.5930118887942
 21
160.4602193484074
 31
0.0
  0
LINE
  5
2A1
330
1F
100
AcDbEntity
  8
3
  6
Continuous
 62
     7
370
    13
100
AcDbLine
 10
123.3569439112943
 20
44.81021934840734
 30
0.0
 11
122.8569439112943
 21
44.31021934840734
 31
0.0
  0
LINE
  5
2A2
330
1F
100
AcDbEntity
  8
3
  6
Continuous
 62
     7
370
    13
100
AcDbLine
 10
117.8569439112944
 20
44.31021934840734
 30
0.0
 11
117.3569439112944
 21
44.81021934840734
 31
0.0
  0
LINE
  5
2A3
330
1F
100
AcDbEntity
  8
3
  6
Continuous
 62
     7
370
    13
100
AcDbLine
 10
122.8569439112943
 20
167.3102193484073
 30
0.0
 11
123.3569439112943
 21
166.8102193484073
 31
0.0
  0
LINE
  5
2A4
330
1F
100
AcDbEntity
  8
3
  6
Continuous
 62
     7
370
    13
100
AcDbLine
 10
117.8569439112944
 20
167.3102193484073
 30
0.0
 11
117.3569439112944
 21
166.8102193484073
 31
0.0
  0
LINE
  5
2A5
330
1F
100
AcDbEntity
  8
3
  6
Continuous
 62
     7
370
    13
100
AcDbLine
 10
117.8569439112944
 20
167.3102193484073
 30
0.0
 11
122.8569439112943
 21
167.3102193484073
 31
0.0
  0
LINE
  5
2A6
330
1F
100
AcDbEntity
  8
3
  6
Continuous
 62
     7
370
    13
100
AcDbLine
 10
123.3569439112943
 20
166.8102193484073
 30
0.0
 11
123.3569439112943
 21
163.9102193484073
 31
0.0
  0
LINE
  5
2A7
330
1F
100
AcDbEntity
  8
3
  6
Continuous
 62
     7
370
    13
100
AcDbLine
 10
117.8569439112944
 20
44.31021934840734
 30
0.0
 11
122.8569439112943
 21
44.31021934840734
 31
0.0
  0
LINE
  5
2A8
330
1F
100
AcDbEntity
  8
3
  6
Continuous
 62
     7
370
    13
100
AcDbLine
 10
117.3569439112944
 20
166.8102193484073
 30
0.0
 11
117.3569439112944
 21
163.9102193484073
 31
0.0
  0
LINE
  5
2A9
330
1F
100
AcDbEntity
  8
3
  6
Continuous
 62
     7
370
    13
100
AcDbLine
 10
114.5369439112942
 20
55.31021934840734
 30
0.0
 11
126.1769439112942
 21
55.31021934840734
 31
0.0
  0
LINE
  5
2AA
330
1F
100
AcDbEntity
  8
3
  6
Continuous
 62
     7
370
    13
100
AcDbLine
 10
124.4069439112942
 20
53.81021934840734
 30
0.0
 11
124.4069439112942
 21
51.31021934840734
 31
0.0
  0
LINE
  5
2AB
330
1F
100
AcDbEntity
  8
3
  6
Continuous
 62
     7
370
    13
100
AcDbLine
 10
126.1769439112942
 20
55.31021934840734
 30
0.0
 11
126.2502772446272
 21
60.81021934840734
 31
0.0
  0
LINE
  5
2AC
330
1F
100
AcDbEntity
  8
3
  6
Continuous
 62
     7
370
    13
100
AcDbLine
 10
116.3069439112944
 20
51.31021934840734
 30
0.0
 11
116.3069439112944
 21
53.81021934840734
 31
0.0
  0
LINE
  5
2AD
330
1F
100
AcDbEntity
  8
3
  6
Continuous
 62
     7
370
    13
100
AcDbLine
 10
124.4069439112942
 20
51.31021934840734
 30
0.0
 11
116.3069439112944
 21
51.31021934840734
 31
0.0
  0
LINE
  5
2AE
330
1F
100
AcDbEntity
  8
3
  6
Continuous
 62
     7
370
    13
100
AcDbLine
 10
125.6569439112942
 20
53.81021934840734
 30
0.0
 11
126.1769439112942
 21
55.31021934840734
 31
0.0
  0
LINE
  5
2AF
330
1F
100
AcDbEntity
  8
3
  6
Continuous
 62
     7
370
    13
100
AcDbLine
 10
115.0569439112944
 20
53.81021934840734
 30
0.0
 11
114.5369439112942
 21
55.31021934840734
 31
0.0
  0
LINE
  5
2B0
330
1F
100
AcDbEntity
  8
3
  6
Continuous
 62
     7
370
    13
100
AcDbLine
 10
125.6569439112942
 20
53.81021934840734
 30
0.0
 11
115.0569439112944
 21
53.81021934840734
 31
0.0
  0
LINE
  5
2B1
330
1F
100
AcDbEntity
  8
3
  6
Continuous
 62
     7
370
    13
100
AcDbLine
 10
114.5369439112942
 20
156.3102193484073
 30
0.0
 11
115.0569439112944
 21
157.8102193484073
 31
0.0
  0
LINE
  5
2B2
330
1F
100
AcDbEntity
  8
3
  6
Continuous
 62
     7
370
    13
100
AcDbLine
 10
114.5369439112942
 20
156.3102193484073
 30
0.0
 11
114.4636105779614
 21
150.8102193484074
 31
0.0
  0
LINE
  5
2B3
330
1F
100
AcDbEntity
  8
3
  6
Continuous
 62
     7
370
    13
100
AcDbLine
 10
126.1769439112942
 20
156.3102193484073
 30
0.0
 11
125.6569439112942
 21
157.8102193484073
 31
0.0
  0
LINE
  5
2B4
330
1F
100
AcDbEntity
  8
3
  6
Continuous
 62
     7
370
    13
100
AcDbLine
 10
124.4069439112942
 20
160.3102193484073
 30
0.0
 11
124.4069439112942
 21
157.8102193484073
 31
0.0
  0
LINE
  5
2B5
330
1F
100
AcDbEntity
  8
3
  6
Continuous
 62
     7
370
    13
100
AcDbLine
 10
116.3069439112944
 20
160.3102193484073
 30
0.0
 11
124.4069439112942
 21
160.3102193484073
 31
0.0
  0
LINE
  5
2B6
330
1F
100
AcDbEntity
  8
3
  6
Continuous
 62
     7
370
    13
100
AcDbLine
 10
125.6569439112942
 20
157.8102193484073
 30
0.0
 11
115.0569439112944
 21
157.8102193484073
 31
0.0
  0
LINE
  5
2B7
330
1F
100
AcDbEntity
  8
3
  6
Continuous
 62
     7
370
    13
100
AcDbLine
 10
118.1208759337942
 20
-9.672830578512702
 30
0.0
 11
122.5930118887942
 21
-9.672830578512702
 31
0.0
  0
LINE
  5
2B8
330
1F
100
AcDbEntity
  8
3
  6
Continuous
 62
     7
370
    13
100
AcDbLine
 10
118.1208759337942
 20
-13.6728305785127
 30
0.0
 11
122.5930118887942
 21
-13.6728305785127
 31
0.0
  0
ARC
  5
2B9
330
1F
100
AcDbEntity
  8
3
  6
Continuous
 62
     7
370
    13
100
AcDbCircle
 10
120.3569439112944
 20
-11.6728305785127
 30
0.0
 40
3.000000000000114
100
AcDbArc
 50
318.1896851042233
 51
41.81031489577668
  0
ARC
  5
2BA
330
1F
100
AcDbEntity
  8
3
  6
Continuous
 62
     7
370
    13
100
AcDbCircle
 10
120.3569439112944
 20
-11.6728305785127
 30
0.0
 40
3.000000000000284
100
AcDbArc
 50
138.1896851042263
 51
221.8103148957737
  0
ARC
  5
2BB
330
1F
100
AcDbEntity
  8
3
  6
PHANTOM
 62
   140
370
    13
100
AcDbCircle
 10
120.3569439112944
 20
-11.6728305785127
 30
0.0
 40
5.999999999999878
100
AcDbArc
 50
273.4196280882847
 51
273.6559364886074
  0
ARC
  5
2BC
330
1F
100
AcDbEntity
  8
3
  6
Continuous
 62
     2
370
    13
100
AcDbCircle
 10
120.356943911295
 20
-11.67283057851268
 30
0.0
 40
5.999999999999978
100
AcDbArc
 50
273.6559364886007
 51
273.419628088278
  0
LINE
  5
2BD
330
1F
100
AcDbEntity
  8
7
  6
Continuous
 62
     7
370
    13
100
AcDbLine
 10
13.35694391130312
 20
53.3102193484074
 30
0.0
 11
13.35694391130312
 21
51.16021934840725
 31
0.0
  0
LINE
  5
2BE
330
1F
100
AcDbEntity
  8
7
  6
Continuous
 62
     7
370
    13
100
AcDbLine
 10
7.856943911303119
 20
156.3102193484074
 30
0.0
 11
7.856943911303119
 21
152.8102193484074
 31
0.0
  0
LINE
  5
2BF
330
1F
100
AcDbEntity
  8
7
  6
Continuous
 62
     7
370
    13
100
AcDbLine
 10
7.856943911303119
 20
55.3102193484074
 30
0.0
 11
7.856943911303119
 21
58.8102193484074
 31
0.0
  0
LINE
  5
2C0
330
1F
100
AcDbEntity
  8
7
  6
Continuous
 62
     7
370
    13
100
AcDbLine
 10
7.356943911303119
 20
54.3102193484074
 30
0.0
 11
7.356943911303119
 21
55.3102193484074
 31
0.0
  0
LINE
  5
2C1
330
1F
100
AcDbEntity
  8
7
  6
Continuous
 62
     7
370
    13
100
AcDbLine
 10
7.356943911303119
 20
54.3102193484074
 30
0.0
 11
7.856943911303119
 21
53.3102193484074
 31
0.0
  0
LINE
  5
2C2
330
1F
100
AcDbEntity
  8
7
  6
Continuous
 62
     7
370
    13
100
AcDbLine
 10
7.856943911303119
 20
158.3102193484074
 30
0.0
 11
7.356943911303119
 21
157.3102193484074
 31
0.0
  0
LINE
  5
2C3
330
1F
100
AcDbEntity
  8
7
  6
Continuous
 62
     7
370
    13
100
AcDbLine
 10
7.356943911303119
 20
156.3102193484074
 30
0.0
 11
7.356943911303119
 21
157.3102193484074
 31
0.0
  0
LINE
  5
2C4
330
1F
100
AcDbEntity
  8
7
  6
Continuous
 62
     7
370
    13
100
AcDbLine
 10
7.83876209312109
 20
150.8102193484074
 30
0.0
 11
7.856943911303119
 21
152.8102193484074
 31
0.0
  0
LINE
  5
2C5
330
1F
100
AcDbEntity
  8
7
  6
Continuous
 62
     7
370
    13
100
AcDbLine
 10
7.83876209312109
 20
60.81021934840734
 30
0.0
 11
7.856943911303119
 21
58.8102193484074
 31
0.0
  0
LINE
  5
2C6
330
1F
100
AcDbEntity
  8
7
  6
Continuous
 62
     7
370
    13
100
AcDbLine
 10
19.35694391130312
 20
158.3102193484074
 30
0.0
 11
19.35694391130312
 21
160.4602193484074
 31
0.0
  0
LINE
  5
2C7
330
1F
100
AcDbEntity
  8
7
  6
Continuous
 62
     7
370
    13
100
AcDbLine
 10
13.35694391130312
 20
160.4602193484074
 30
0.0
 11
13.35694391130312
 21
158.3102193484074
 31
0.0
  0
LINE
  5
2C8
330
1F
100
AcDbEntity
  8
7
  6
Continuous
 62
     7
370
    13
100
AcDbLine
 10
19.35694391130312
 20
51.16021934840725
 30
0.0
 11
19.35694391130312
 21
53.3102193484074
 31
0.0
  0
LINE
  5
2C9
330
1F
100
AcDbEntity
  8
7
  6
Continuous
 62
     7
370
    13
100
AcDbLine
 10
7.856943911303119
 20
158.3102193484074
 30
0.0
 11
23.65694391130307
 21
158.3102193484074
 31
0.0
  0
LINE
  5
2CA
330
1F
100
AcDbEntity
  8
7
  6
Continuous
 62
     7
370
    13
100
AcDbLine
 10
7.356943911303119
 20
156.3102193484074
 30
0.0
 11
23.65694391130307
 21
156.3102193484074
 31
0.0
  0
LINE
  5
2CB
330
1F
100
AcDbEntity
  8
7
  6
Continuous
 62
     7
370
    13
100
AcDbLine
 10
23.65694391130307
 20
55.3102193484074
 30
0.0
 11
7.356943911303119
 21
55.3102193484074
 31
0.0
  0
LINE
  5
2CC
330
1F
100
AcDbEntity
  8
7
  6
Continuous
 62
     7
370
    13
100
AcDbLine
 10
23.65694391130307
 20
53.3102193484074
 30
0.0
 11
7.856943911303119
 21
53.3102193484074
 31
0.0
  0
LINE
  5
2CD
330
1F
100
AcDbEntity
  8
7
  6
Continuous
 62
     7
370
    13
100
AcDbLine
 10
14.12087593379408
 20
-16.6728305785127
 30
0.0
 11
18.59301188879419
 21
-16.6728305785127
 31
0.0
  0
LINE
  5
2CE
330
1F
100
AcDbEntity
  8
7
  6
Continuous
 62
     7
370
    13
100
AcDbLine
 10
14.12087593379408
 20
-12.6728305785127
 30
0.0
 11
18.59301188879419
 21
-12.6728305785127
 31
0.0
  0
ARC
  5
2CF
330
1F
100
AcDbEntity
  8
7
  6
Continuous
 62
     7
370
    13
100
AcDbCircle
 10
16.35694391129437
 20
-14.6728305785127
 30
0.0
 40
3.000000000000305
100
AcDbArc
 50
138.1896851042266
 51
221.8103148957734
  0
ARC
  5
2D0
330
1F
100
AcDbEntity
  8
7
  6
Continuous
 62
     7
370
    13
100
AcDbCircle
 10
16.35694391129437
 20
-14.6728305785127
 30
0.0
 40
3.000000000000071
100
AcDbArc
 50
318.1896851042226
 51
41.81031489577739
  0
ARC
  5
2D1
330
1F
100
AcDbEntity
  8
7
  6
Continuous
 62
     7
370
    13
100
AcDbCircle
 10
16.35694391129437
 20
-14.6728305785127
 30
0.0
 40
9.0
100
AcDbArc
 50
51.0575587310187
 51
211.8297384835728
  0
LINE
  5
2D2
330
1F
100
AcDbEntity
  8
7
  6
Continuous
 62
     7
370
    13
100
AcDbLine
 10
-192.8011579449535
 20
-17.6728305785127
 30
0.0
 11
-190.6511579449534
 21
-17.6728305785127
 31
0.0
  0
LINE
  5
2D3
330
1F
100
AcDbEntity
  8
7
  6
Continuous
 62
     7
370
    13
100
AcDbLine
 10
-189.6511579449534
 20
-23.67283057851259
 30
0.0
 11
-166.6511579449534
 21
-23.67283057851259
 31
0.0
  0
LINE
  5
2D4
330
1F
100
AcDbEntity
  8
7
  6
Continuous
 62
     7
370
    13
100
AcDbLine
 10
-189.6511579449534
 20
-5.672830578512389
 30
0.0
 11
-190.6511579449534
 21
-6.172830578512389
 31
0.0
  0
LINE
  5
2D5
330
1F
100
AcDbEntity
  8
7
  6
Continuous
 62
     7
370
    13
100
AcDbLine
 10
-189.6511579449534
 20
-23.67283057851259
 30
0.0
 11
-190.6511579449534
 21
-23.17283057851259
 31
0.0
  0
LINE
  5
2D6
330
1F
100
AcDbEntity
  8
7
  6
Continuous
 62
     7
370
    13
100
AcDbLine
 10
-192.6511579449534
 20
-17.6728305785127
 30
0.0
 11
-192.6511579449534
 21
-11.6728305785127
 31
0.0
  0
LINE
  5
2D7
330
1F
100
AcDbEntity
  8
7
  6
Continuous
 62
     7
370
    13
100
AcDbLine
 10
-83.65115794495352
 20
-11.6728305785127
 30
0.0
 11
-83.65115794495352
 21
-17.6728305785127
 31
0.0
  0
LINE
  5
2D8
330
1F
100
AcDbEntity
  8
7
  6
Continuous
 62
     7
370
    13
100
AcDbLine
 10
-85.65115794495352
 20
-23.17283057851259
 30
0.0
 11
-86.65115794495352
 21
-23.67283057851259
 31
0.0
  0
LINE
  5
2D9
330
1F
100
AcDbEntity
  8
7
  6
Continuous
 62
     7
370
    13
100
AcDbLine
 10
-85.65115794495352
 20
-6.172830578512389
 30
0.0
 11
-86.65115794495352
 21
-5.672830578512389
 31
0.0
  0
LINE
  5
2DA
330
1F
100
AcDbEntity
  8
7
  6
Continuous
 62
     7
370
    13
100
AcDbLine
 10
-85.65115794495352
 20
-11.6728305785127
 30
0.0
 11
-83.50115794495366
 21
-11.6728305785127
 31
0.0
  0
LINE
  5
2DB
330
1F
100
AcDbEntity
  8
7
  6
Continuous
 62
     7
370
    13
100
AcDbLine
 10
-86.65115794495352
 20
-23.67283057851259
 30
0.0
 11
-166.6511579449534
 21
-23.67283057851259
 31
0.0
  0
LINE
  5
2DC
330
1F
100
AcDbEntity
  8
7
  6
Continuous
 62
     7
370
    13
100
AcDbLine
 10
-189.6511579449534
 20
-5.672830578512389
 30
0.0
 11
-86.65115794495352
 21
-5.672830578512389
 31
0.0
  0
LINE
  5
2DD
330
1F
100
AcDbEntity
  8
7
  6
Continuous
 62
     7
370
    13
100
AcDbLine
 10
-85.65115794495352
 20
-6.172830578512389
 30
0.0
 11
-85.65115794495352
 21
-23.17283057851259
 31
0.0
  0
LINE
  5
2DE
330
1F
100
AcDbEntity
  8
7
  6
Continuous
 62
     7
370
    13
100
AcDbLine
 10
-86.65115794495352
 20
-23.67283057851259
 30
0.0
 11
-86.65115794495352
 21
-5.672830578512389
 31
0.0
  0
LINE
  5
2DF
330
1F
100
AcDbEntity
  8
7
  6
Continuous
 62
     7
370
    13
100
AcDbLine
 10
-85.65115794495352
 20
-17.6728305785127
 30
0.0
 11
-83.50115794495366
 21
-17.6728305785127
 31
0.0
  0
LINE
  5
2E0
330
1F
100
AcDbEntity
  8
7
  6
Continuous
 62
     7
370
    13
100
AcDbLine
 10
-189.6511579449534
 20
-23.67283057851259
 30
0.0
 11
-189.6511579449534
 21
-5.672830578512389
 31
0.0
  0
LINE
  5
2E1
330
1F
100
AcDbEntity
  8
7
  6
Continuous
 62
     7
370
    13
100
AcDbLine
 10
-190.6511579449534
 20
-6.172830578512389
 30
0.0
 11
-190.6511579449534
 21
-23.17283057851259
 31
0.0
  0
LINE
  5
2E2
330
1F
100
AcDbEntity
  8
7
  6
Continuous
 62
     7
370
    13
100
AcDbLine
 10
-190.6511579449534
 20
-11.6728305785127
 30
0.0
 11
-192.8011579449535
 21
-11.6728305785127
 31
0.0
  0
LINE
  5
2E3
330
1F
100
AcDbEntity
  8
7
  6
DASHED2
 62
     4
370
    13
100
AcDbLine
 10
7.656943911303074
 20
80.8102193484074
 30
0.0
 11
7.656943911303074
 21
130.8102193484074
 31
0.0
  0
LINE
  5
2E4
330
1F
100
AcDbEntity
  8
7
  6
DASHED2
 62
     4
370
    13
100
AcDbLine
 10
24.85694391130312
 20
152.8102193484074
 30
0.0
 11
24.85694391130312
 21
156.3102193484074
 31
0.0
  0
LINE
  5
2E5
330
1F
100
AcDbEntity
  8
7
  6
DASHED2
 62
     4
370
    13
100
AcDbLine
 10
24.85694391130312
 20
55.3102193484074
 30
0.0
 11
24.85694391130312
 21
58.8102193484074
 31
0.0
  0
LINE
  5
2E6
330
1F
100
AcDbEntity
  8
7
  6
DASHED2
 62
     4
370
    13
100
AcDbLine
 10
25.05694391130316
 20
80.8102193484074
 30
0.0
 11
25.05694391130316
 21
130.8102193484074
 31
0.0
  0
LINE
  5
2E7
330
1F
100
AcDbEntity
  8
7
  6
DASHED2
 62
     4
370
    13
100
AcDbLine
 10
7.656943911303074
 20
130.8102193484074
 30
0.0
 11
7.83876209312109
 21
150.8102193484074
 31
0.0
  0
LINE
  5
2E8
330
1F
100
AcDbEntity
  8
7
  6
DASHED2
 62
     4
370
    13
100
AcDbLine
 10
25.05694391130316
 20
130.8102193484074
 30
0.0
 11
24.87512572948526
 21
150.8102193484074
 31
0.0
  0
LINE
  5
2E9
330
1F
100
AcDbEntity
  8
7
  6
DASHED2
 62
     4
370
    13
100
AcDbLine
 10
7.656943911303074
 20
80.8102193484074
 30
0.0
 11
7.83876209312109
 21
60.81021934840734
 31
0.0
  0
LINE
  5
2EA
330
1F
100
AcDbEntity
  8
7
  6
DASHED2
 62
     4
370
    13
100
AcDbLine
 10
24.85694391130312
 20
58.8102193484074
 30
0.0
 11
24.87512572948526
 21
60.81021934840734
 31
0.0
  0
LINE
  5
2EB
330
1F
100
AcDbEntity
  8
7
  6
DASHED2
 62
     4
370
    13
100
AcDbLine
 10
25.35694391130312
 20
54.3102193484074
 30
0.0
 11
25.35694391130312
 21
55.3102193484074
 31
0.0
  0
LINE
  5
2EC
330
1F
100
AcDbEntity
  8
7
  6
DASHED2
 62
     4
370
    13
100
AcDbLine
 10
25.35694391130312
 20
54.3102193484074
 30
0.0
 11
24.85694391130312
 21
53.3102193484074
 31
0.0
  0
LINE
  5
2ED
330
1F
100
AcDbEntity
  8
7
  6
DASHED2
 62
     4
370
    13
100
AcDbLine
 10
24.85694391130312
 20
158.3102193484074
 30
0.0
 11
25.35694391130312
 21
157.3102193484074
 31
0.0
  0
LINE
  5
2EE
330
1F
100
AcDbEntity
  8
7
  6
DASHED2
 62
     4
370
    13
100
AcDbLine
 10
25.35694391130312
 20
156.3102193484074
 30
0.0
 11
25.35694391130312
 21
157.3102193484074
 31
0.0
  0
LINE
  5
2EF
330
1F
100
AcDbEntity
  8
7
  6
DASHED2
 62
     4
370
    13
100
AcDbLine
 10
24.87512572948526
 20
150.8102193484074
 30
0.0
 11
24.85694391130312
 21
152.8102193484074
 31
0.0
  0
LINE
  5
2F0
330
1F
100
AcDbEntity
  8
7
  6
DASHED2
 62
     4
370
    13
100
AcDbLine
 10
24.87512572948526
 20
60.81021934840734
 30
0.0
 11
25.05694391130316
 21
80.8102193484074
 31
0.0
  0
LINE
  5
2F1
330
1F
100
AcDbEntity
  8
7
  6
DASHED2
 62
     4
370
    13
100
AcDbLine
 10
23.65694391130307
 20
158.3102193484074
 30
0.0
 11
24.85694391130312
 21
158.3102193484074
 31
0.0
  0
LINE
  5
2F2
330
1F
100
AcDbEntity
  8
7
  6
DASHED2
 62
     4
370
    13
100
AcDbLine
 10
23.65694391130307
 20
156.3102193484074
 30
0.0
 11
25.35694391130312
 21
156.3102193484074
 31
0.0
  0
LINE
  5
2F3
330
1F
100
AcDbEntity
  8
7
  6
DASHED2
 62
     4
370
    13
100
AcDbLine
 10
23.65694391130307
 20
55.3102193484074
 30
0.0
 11
25.35694391130312
 21
55.3102193484074
 31
0.0
  0
LINE
  5
2F4
330
1F
100
AcDbEntity
  8
7
  6
DASHED2
 62
     4
370
    13
100
AcDbLine
 10
23.65694391130307
 20
53.3102193484074
 30
0.0
 11
24.85694391130312
 21
53.3102193484074
 31
0.0
  0
ARC
  5
2F5
330
1F
100
AcDbEntity
  8
7
  6
DASHED2
 62
     4
370
    13
100
AcDbCircle
 10
16.35694391129437
 20
-14.6728305785127
 30
0.0
 40
9.0
100
AcDbArc
 50
211.8297384835728
 51
51.05755873101869
  0
LINE
  5
2F6
330
1F
100
AcDbEntity
  8
7
  6
CENTERX2
 62
     3
370
    13
100
AcDbLine
 10
16.35694391130312
 20
149.9007242873062
 30
0.0
 11
16.35694391130312
 21
164.3157888666723
 31
0.0
  0
LINE
  5
2F7
330
1F
100
AcDbEntity
  8
7
  6
CENTERX2
 62
     3
370
    13
100
AcDbLine
 10
16.35694391130312
 20
47.30464983014261
 30
0.0
 11
16.35694391130312
 21
61.71971440950884
 31
0.0
  0
LINE
  5
2F8
330
1F
100
AcDbEntity
  8
7
  6
CENTERX2
 62
     3
370
    13
100
AcDbLine
 10
1.356943911294366
 20
-14.6728305785127
 30
0.0
 11
31.35694391129437
 21
-14.6728305785127
 31
0.0
  0
LINE
  5
2F9
330
1F
100
AcDbEntity
  8
7
  6
CENTERX2
 62
     3
370
    13
100
AcDbLine
 10
16.35694391129437
 20
-2.672830578512702
 30
0.0
 11
16.35694391129437
 21
-26.67283057851259
 31
0.0
  0
LINE
  5
2FA
330
1F
100
AcDbEntity
  8
7
  6
CENTERX2
 62
     3
370
    13
100
AcDbLine
 10
-197.4849043741995
 20
-14.6728305785127
 30
0.0
 11
-79.6455884266885
 21
-14.6728305785127
 31
0.0
  0
TEXT
  5
2FB
330
1F
100
AcDbEntity
  8
0
 62
     4
100
AcDbText
 10
148.865558273117
 20
-124.6325115946348
 30
0.0
 40
8.0
  1
4-φ6
 41
0.687757909215956
  7
dcStyle0
 72
     5
 11
168.865558273117
 21
-124.6325115946348
 31
0.0
100
AcDbText
  0
LINE
  5
2FC
330
1F
100
AcDbEntity
  8
11
  6
PHANTOM
 62
   140
370
    13
100
AcDbLine
 10
-93.15115794495352
 20
-23.67283057851259
 30
0.0
 11
-93.15115794495352
 21
-24.4728305785126
 31
0.0
  0
LINE
  5
2FD
330
1F
100
AcDbEntity
  8
11
  6
PHANTOM
 62
   140
370
    13
100
AcDbLine
 10
-183.1511579449534
 20
-23.67283057851259
 30
0.0
 11
-93.15115794495352
 21
-23.67283057851259
 31
0.0
  0
LINE
  5
2FE
330
1F
100
AcDbEntity
  8
11
  6
PHANTOM
 62
   140
370
    13
100
AcDbLine
 10
-183.1511579449534
 20
-24.4728305785126
 30
0.0
 11
-183.1511579449534
 21
-23.67283057851259
 31
0.0
  0
LINE
  5
2FF
330
1F
100
AcDbEntity
  8
11
  6
PHANTOM
 62
   140
370
    13
100
AcDbLine
 10
-93.15115794495352
 20
-24.4728305785126
 30
0.0
 11
-183.1511579449534
 21
-24.4728305785126
 31
0.0
  0
LINE
  5
300
330
1F
100
AcDbEntity
  8
11
  6
PHANTOM
 62
   140
370
    13
100
AcDbLine
 10
-183.1511579449534
 20
-5.672830578512389
 30
0.0
 11
-183.1511579449534
 21
-4.872830578512406
 31
0.0
  0
LINE
  5
301
330
1F
100
AcDbEntity
  8
11
  6
PHANTOM
 62
   140
370
    13
100
AcDbLine
 10
-93.15115794495352
 20
-5.672830578512389
 30
0.0
 11
-183.1511579449534
 21
-5.672830578512389
 31
0.0
  0
LINE
  5
302
330
1F
100
AcDbEntity
  8
11
  6
PHANTOM
 62
   140
370
    13
100
AcDbLine
 10
-93.15115794495352
 20
-4.872830578512406
 30
0.0
 11
-93.15115794495352
 21
-5.672830578512389
 31
0.0
  0
LINE
  5
303
330
1F
100
AcDbEntity
  8
11
  6
PHANTOM
 62
   140
370
    13
100
AcDbLine
 10
-183.1511579449534
 20
-4.872830578512406
 30
0.0
 11
-93.15115794495352
 21
-4.872830578512406
 31
0.0
  0
LINE
  5
304
330
1F
100
AcDbEntity
  8
11
  6
PHANTOM
 62
   140
370
    13
100
AcDbLine
 10
120.3569439112944
 20
-5.672830578512588
 30
0.0
 11
16.35694391129437
 21
-5.672830578512588
 31
0.0
  0
LINE
  5
305
330
1F
100
AcDbEntity
  8
11
  6
PHANTOM
 62
   140
370
    13
100
AcDbLine
 10
16.87574298750621
 20
-23.65786522054501
 30
0.0
 11
120.7028099621023
 21
-17.662853673201
 31
0.0
  0
LINE
  5
306
330
1F
100
AcDbEntity
  8
11
  6
PHANTOM
 62
   140
370
    13
100
AcDbLine
 10
120.3569439112944
 20
-4.872830578512492
 30
0.0
 11
16.35694391129437
 21
-4.872830578512492
 31
0.0
  0
LINE
  5
307
330
1F
100
AcDbEntity
  8
11
  6
PHANTOM
 62
   140
370
    13
100
AcDbLine
 10
16.9218584609481
 20
-24.4565349665036
 30
0.0
 11
120.7489254355431
 21
-18.46152341915939
 31
0.0
  0
ARC
  5
308
330
1F
100
AcDbEntity
  8
11
  6
PHANTOM
 62
   140
370
    13
100
AcDbCircle
 10
16.35694391129437
 20
-14.6728305785127
 30
0.0
 40
9.000000000000114
100
AcDbArc
 50
90.0
 51
273.304609355299
  0
ARC
  5
309
330
1F
100
AcDbEntity
  8
11
  6
PHANTOM
 62
   140
370
    13
100
AcDbCircle
 10
120.3569439112944
 20
-11.6728305785127
 30
0.0
 40
6.000000000000051
100
AcDbArc
 50
273.3046093552986
 51
90.0
  0
ARC
  5
30A
330
1F
100
AcDbEntity
  8
11
  6
PHANTOM
 62
   140
370
    13
100
AcDbCircle
 10
16.35694391129437
 20
-14.6728305785127
 30
0.0
 40
9.80000000000021
100
AcDbArc
 50
90.0
 51
273.3046093553038
  0
ARC
  5
30B
330
1F
100
AcDbEntity
  8
11
  6
PHANTOM
 62
   140
370
    13
100
AcDbCircle
 10
120.3569439112944
 20
-11.6728305785127
 30
0.0
 40
6.800000000000003
100
AcDbArc
 50
273.3046093552975
 51
90.0
  0
LINE
  5
30C
330
1F
100
AcDbEntity
  8
6
  6
Continuous
 62
     7
370
    13
100
AcDbLine
 10
-81.65115794495352
 20
-102.1728305785124
 30
0.0
 11
-194.6511579449534
 21
-102.1728305785124
 31
0.0
  0
LINE
  5
30D
330
1F
100
AcDbEntity
  8
6
  6
Continuous
 62
     7
370
    13
100
AcDbLine
 10
-84.85115794495357
 20
-27.1728305785125
 30
0.0
 11
-84.85115794495357
 21
-23.6728305785125
 31
0.0
  0
LINE
  5
30E
330
1F
100
AcDbEntity
  8
6
  6
Continuous
 62
     7
370
    13
100
AcDbLine
 10
-81.65115794495352
 20
-102.1728305785124
 30
0.0
 11
-81.65115794495352
 21
-23.6728305785125
 31
0.0
  0
LINE
  5
30F
330
1F
100
AcDbEntity
  8
6
  6
Continuous
 62
     7
370
    13
100
AcDbLine
 10
-84.85115794495357
 20
-23.6728305785125
 30
0.0
 11
-81.65115794495352
 21
-23.6728305785125
 31
0.0
  0
LINE
  5
310
330
1F
100
AcDbEntity
  8
6
  6
Continuous
 62
     7
370
    13
100
AcDbLine
 10
-194.6511579449534
 20
-102.1728305785124
 30
0.0
 11
-194.6511579449534
 21
-23.6728305785125
 31
0.0
  0
LINE
  5
311
330
1F
100
AcDbEntity
  8
6
  6
Continuous
 62
     7
370
    13
100
AcDbLine
 10
-191.4511579449534
 20
-27.1728305785125
 30
0.0
 11
-191.4511579449534
 21
-23.6728305785125
 31
0.0
  0
LINE
  5
312
330
1F
100
AcDbEntity
  8
6
  6
Continuous
 62
     7
370
    13
100
AcDbLine
 10
-194.6511579449534
 20
-23.6728305785125
 30
0.0
 11
-191.4511579449534
 21
-23.6728305785125
 31
0.0
  0
LINE
  5
313
330
1F
100
AcDbEntity
  8
6
  6
Continuous
 62
     7
370
    13
100
AcDbLine
 10
-131.7480337075206
 20
-27.17283057851225
 30
0.0
 11
-81.65115794495352
 21
-27.1728305785125
 31
0.0
  0
LINE
  5
314
330
1F
100
AcDbEntity
  8
6
  6
Continuous
 62
     7
370
    13
100
AcDbLine
 10
-194.6511579449534
 20
-27.1728305785125
 30
0.0
 11
-144.5542821823865
 21
-27.1728305785123
 31
0.0
  0
LINE
  5
315
330
1F
100
AcDbEntity
  8
5
  6
Continuous
 62
     7
370
    13
100
AcDbLine
 10
9.556943911303165
 20
-19.27283057851258
 30
0.0
 11
9.35694391130312
 21
-19.07283057851251
 31
0.0
  0
LINE
  5
316
330
1F
100
AcDbEntity
  8
5
  6
Continuous
 62
     7
370
    13
100
AcDbLine
 10
51.82104552644137
 20
43.46024134873002
 30
0.0
 11
44.89284229616521
 21
43.46024134873002
 31
0.0
  0
LINE
  5
317
330
1F
100
AcDbEntity
  8
5
  6
Continuous
 62
     7
370
    13
100
AcDbLine
 10
46.0475428345444
 20
43.8175069386381
 30
0.0
 11
46.0475428345444
 21
46.96024134873002
 31
0.0
  0
LINE
  5
318
330
1F
100
AcDbEntity
  8
5
  6
Continuous
 62
     7
370
    13
100
AcDbLine
 10
50.6663449880615
 20
43.8175069386381
 30
0.0
 11
50.6663449880615
 21
46.96024134873002
 31
0.0
  0
LINE
  5
319
330
1F
100
AcDbEntity
  8
5
  6
Continuous
 62
     7
370
    13
100
AcDbLine
 10
43.73814175778614
 20
43.8175069386381
 30
0.0
 11
43.73814175778614
 21
44.25377209233895
 31
0.0
  0
LINE
  5
31A
330
1F
100
AcDbEntity
  8
5
  6
Continuous
 62
     7
370
    13
100
AcDbLine
 10
52.97574606482021
 20
47.71021934840743
 30
0.0
 11
52.97574606482021
 21
43.8175069386381
 31
0.0
  0
LINE
  5
31B
330
1F
100
AcDbEntity
  8
5
  6
Continuous
 62
     7
370
    13
100
AcDbLine
 10
-196.2511579449535
 20
-15.57283057851251
 30
0.0
 11
-201.9011579449534
 21
-15.57283057851251
 31
0.0
  0
LINE
  5
31C
330
1F
100
AcDbEntity
  8
5
  6
Continuous
 62
     7
370
    13
100
AcDbLine
 10
-80.05115794495362
 20
-15.57283057851251
 30
0.0
 11
-74.50115794495366
 21
-15.57283057851251
 31
0.0
  0
LINE
  5
31D
330
1F
100
AcDbEntity
  8
5
  6
Continuous
 62
     7
370
    13
100
AcDbLine
 10
-190.4511579449534
 20
-6.072830578512509
 30
0.0
 11
-192.4011579449534
 21
-6.072830578512509
 31
0.0
  0
LINE
  5
31E
330
1F
100
AcDbEntity
  8
5
  6
Continuous
 62
     7
370
    13
100
AcDbLine
 10
-85.65115794495352
 20
-7.672830578512702
 30
0.0
 11
-84.50115794495366
 21
-7.672830578512702
 31
0.0
  0
LINE
  5
31F
330
1F
100
AcDbEntity
  8
5
  6
Continuous
 62
     7
370
    13
100
AcDbLine
 10
26.31549202697522
 20
47.0537720923389
 30
0.0
 11
34.39839579563011
 21
47.0537720923389
 31
0.0
  0
LINE
  5
320
330
1F
100
AcDbEntity
  8
5
  6
Continuous
 62
     7
370
    13
100
AcDbLine
 10
28.33621796913928
 20
47.0537720923389
 30
0.0
 11
28.33621796913928
 21
44.56637948350865
 31
0.0
  0
LINE
  5
321
330
1F
100
AcDbEntity
  8
5
  6
Continuous
 62
     7
370
    13
100
AcDbLine
 10
32.37766985346718
 20
47.0537720923389
 30
0.0
 11
32.37766985346718
 21
44.56637948350865
 31
0.0
  0
LINE
  5
322
330
1F
100
AcDbEntity
  8
5
  6
Continuous
 62
     7
370
    13
100
AcDbLine
 10
33.38803282454808
 20
44.25377209233895
 30
0.0
 11
27.32585499805737
 21
44.25377209233895
 31
0.0
  0
LINE
  5
323
330
1F
100
AcDbEntity
  8
5
  6
Continuous
 62
     7
370
    13
100
AcDbLine
 10
34.39839579563011
 20
47.71021934840743
 30
0.0
 11
26.31549202697522
 21
47.71021934840743
 31
0.0
  0
LINE
  5
324
330
1F
100
AcDbEntity
  8
5
  6
Continuous
 62
     7
370
    13
100
AcDbLine
 10
26.31549202697522
 20
47.71021934840743
 30
0.0
 11
26.31549202697522
 21
44.56637948350865
 31
0.0
  0
LINE
  5
325
330
1F
100
AcDbEntity
  8
5
  6
Continuous
 62
     7
370
    13
100
AcDbLine
 10
34.39839579563011
 20
47.71021934840743
 30
0.0
 11
34.39839579563011
 21
44.56637948350865
 31
0.0
  0
LINE
  5
326
330
1F
100
AcDbEntity
  8
5
  6
Continuous
 62
     7
370
    13
100
AcDbLine
 10
61.31549202697522
 20
47.71021934840743
 30
0.0
 11
69.39839579563011
 21
47.71021934840743
 31
0.0
  0
LINE
  5
327
330
1F
100
AcDbEntity
  8
5
  6
Continuous
 62
     7
370
    13
100
AcDbLine
 10
68.38803282454819
 20
44.25377209233895
 30
0.0
 11
62.32585499805737
 21
44.25377209233895
 31
0.0
  0
LINE
  5
328
330
1F
100
AcDbEntity
  8
5
  6
Continuous
 62
     7
370
    13
100
AcDbLine
 10
67.3776698534673
 20
47.0537720923389
 30
0.0
 11
67.3776698534673
 21
44.56637948350865
 31
0.0
  0
LINE
  5
329
330
1F
100
AcDbEntity
  8
5
  6
Continuous
 62
     7
370
    13
100
AcDbLine
 10
63.3362179691394
 20
47.0537720923389
 30
0.0
 11
63.3362179691394
 21
44.56637948350865
 31
0.0
  0
LINE
  5
32A
330
1F
100
AcDbEntity
  8
5
  6
Continuous
 62
     7
370
    13
100
AcDbLine
 10
69.39839579563011
 20
47.71021934840743
 30
0.0
 11
69.39839579563011
 21
44.56637948350865
 31
0.0
  0
LINE
  5
32B
330
1F
100
AcDbEntity
  8
5
  6
Continuous
 62
     7
370
    13
100
AcDbLine
 10
61.31549202697522
 20
47.0537720923389
 30
0.0
 11
69.39839579563011
 21
47.0537720923389
 31
0.0
  0
LINE
  5
32C
330
1F
100
AcDbEntity
  8
5
  6
Continuous
 62
     7
370
    13
100
AcDbLine
 10
61.31549202697522
 20
44.56637948350865
 30
0.0
 11
61.31549202697522
 21
47.71021934840743
 31
0.0
  0
LINE
  5
32D
330
1F
100
AcDbEntity
  8
5
  6
Continuous
 62
     7
370
    13
100
AcDbLine
 10
113.7569439113032
 20
-14.27283057851258
 30
0.0
 11
113.7569439113032
 21
-16.07283057851251
 31
0.0
  0
LINE
  5
32E
330
1F
100
AcDbEntity
  8
5
  6
Continuous
 62
     7
370
    13
100
AcDbLine
 10
102.1569439113032
 20
-16.07283057851251
 30
0.0
 11
113.7569439113032
 21
-16.07283057851251
 31
0.0
  0
LINE
  5
32F
330
1F
100
AcDbEntity
  8
5
  6
Continuous
 62
     7
370
    13
100
AcDbLine
 10
102.1569439113032
 20
-15.57283057851251
 30
0.0
 11
103.7569439113032
 21
-15.57283057851251
 31
0.0
  0
LINE
  5
330
330
1F
100
AcDbEntity
  8
5
  6
Continuous
 62
     7
370
    13
100
AcDbLine
 10
121.8569439113031
 20
162.0602193484074
 30
0.0
 11
121.8569439113031
 21
160.4602193484074
 31
0.0
  0
LINE
  5
331
330
1F
100
AcDbEntity
  8
5
  6
Continuous
 62
     7
370
    13
100
AcDbLine
 10
121.8569439113031
 20
51.16021934840725
 30
0.0
 11
121.8569439113031
 21
49.56021934840734
 31
0.0
  0
LINE
  5
332
330
1F
100
AcDbEntity
  8
5
  6
Continuous
 62
     7
370
    13
100
AcDbLine
 10
14.57306172988808
 20
51.16021934840725
 30
0.0
 11
14.57306172988808
 21
49.56021934840734
 31
0.0
  0
LINE
  5
333
330
1F
100
AcDbEntity
  8
5
  6
Continuous
 62
     7
370
    13
100
AcDbLine
 10
14.57306172988808
 20
162.0602193484074
 30
0.0
 11
14.57306172988808
 21
160.4602193484074
 31
0.0
  0
LINE
  5
334
330
1F
100
AcDbEntity
  8
5
  6
Continuous
 62
     7
370
    13
100
AcDbLine
 10
-81.90115794495352
 20
-9.719277187919403
 30
0.0
 11
-83.50115794495366
 21
-9.719277187919403
 31
0.0
  0
LINE
  5
335
330
1F
100
AcDbEntity
  8
5
  6
Continuous
 62
     7
370
    13
100
AcDbLine
 10
-194.4011579449534
 20
-9.719277187919403
 30
0.0
 11
-192.8011579449535
 21
-9.719277187919403
 31
0.0
  0
LINE
  5
336
330
1F
100
AcDbEntity
  8
5
  6
Continuous
 62
     7
370
    13
100
AcDbLine
 10
-74.00115794495366
 20
-15.07283057851251
 30
0.0
 11
-74.50115794495366
 21
-15.57283057851251
 31
0.0
  0
LINE
  5
337
330
1F
100
AcDbEntity
  8
5
  6
Continuous
 62
     7
370
    13
100
AcDbLine
 10
-83.50115794495366
 20
-15.57283057851251
 30
0.0
 11
-81.90115794495352
 21
-15.57283057851251
 31
0.0
  0
LINE
  5
338
330
1F
100
AcDbEntity
  8
5
  6
Continuous
 62
     7
370
    13
100
AcDbLine
 10
-202.4011579449534
 20
-8.172830578512702
 30
0.0
 11
-201.9011579449534
 21
-7.672830578512702
 31
0.0
  0
LINE
  5
339
330
1F
100
AcDbEntity
  8
5
  6
Continuous
 62
     7
370
    13
100
AcDbLine
 10
-202.4011579449534
 20
-15.07283057851279
 30
0.0
 11
-201.9011579449534
 21
-15.57283057851251
 31
0.0
  0
LINE
  5
33A
330
1F
100
AcDbEntity
  8
5
  6
Continuous
 62
     7
370
    13
100
AcDbLine
 10
-202.4011579449534
 20
-8.172830578512702
 30
0.0
 11
-202.4011579449534
 21
-15.07283057851279
 31
0.0
  0
LINE
  5
33B
330
1F
100
AcDbEntity
  8
5
  6
Continuous
 62
     7
370
    13
100
AcDbLine
 10
-192.8011579449535
 20
-15.57283057851251
 30
0.0
 11
-194.6511579449534
 21
-15.57283057851251
 31
0.0
  0
LINE
  5
33C
330
1F
100
AcDbEntity
  8
5
  6
Continuous
 62
     7
370
    13
100
AcDbLine
 10
103.7569439113032
 20
169.9602193484074
 30
0.0
 11
103.7569439113032
 21
162.0602193484074
 31
0.0
  0
LINE
  5
33D
330
1F
100
AcDbEntity
  8
5
  6
Continuous
 62
     7
370
    13
100
AcDbLine
 10
102.1569439113032
 20
169.9602193484072
 30
0.0
 11
103.7569439113032
 21
169.9602193484074
 31
0.0
  0
LINE
  5
33E
330
1F
100
AcDbEntity
  8
5
  6
Continuous
 62
     7
370
    13
100
AcDbLine
 10
102.1569439113032
 20
163.5602193484074
 30
0.0
 11
102.1569439113032
 21
169.9602193484072
 31
0.0
  0
LINE
  5
33F
330
1F
100
AcDbEntity
  8
5
  6
Continuous
 62
     7
370
    13
100
AcDbLine
 10
103.7569439113032
 20
41.66021934840754
 30
0.0
 11
103.7569439113032
 21
49.56021934840734
 31
0.0
  0
LINE
  5
340
330
1F
100
AcDbEntity
  8
5
  6
Continuous
 62
     7
370
    13
100
AcDbLine
 10
102.1569439113032
 20
41.66021934840765
 30
0.0
 11
103.7569439113032
 21
41.66021934840754
 31
0.0
  0
LINE
  5
341
330
1F
100
AcDbEntity
  8
5
  6
Continuous
 62
     7
370
    13
100
AcDbLine
 10
102.1569439113032
 20
48.06021934840734
 30
0.0
 11
102.1569439113032
 21
41.66021934840765
 31
0.0
  0
LINE
  5
342
330
1F
100
AcDbEntity
  8
5
  6
Continuous
 62
     7
370
    13
100
AcDbLine
 10
9.85694391130312
 20
-16.77283057851258
 30
0.0
 11
9.35694391130312
 21
-17.27283057851258
 31
0.0
  0
LINE
  5
343
330
1F
100
AcDbEntity
  8
5
  6
Continuous
 62
     7
370
    13
100
AcDbLine
 10
9.35694391130312
 20
-12.07283057851251
 30
0.0
 11
9.85694391130312
 21
-12.57283057851251
 31
0.0
  0
LINE
  5
344
330
1F
100
AcDbEntity
  8
5
  6
Continuous
 62
     7
370
    13
100
AcDbLine
 10
9.710497301896226
 20
-10.43539500650451
 30
0.0
 11
9.35694391130312
 21
-11.2889483970977
 31
0.0
  0
LINE
  5
345
330
1F
100
AcDbEntity
  8
5
  6
Continuous
 62
     7
370
    13
100
AcDbLine
 10
125.8666535734582
 20
-16.07088864608158
 30
0.0
 11
126.3569439113031
 21
-15.4728305785126
 31
0.0
  0
LINE
  5
346
330
1F
100
AcDbEntity
  8
5
  6
Continuous
 62
     7
370
    13
100
AcDbLine
 10
126.0033905207102
 20
-9.719277187919403
 30
0.0
 11
126.3569439113031
 21
-10.57283057851251
 31
0.0
  0
LINE
  5
347
330
1F
100
AcDbEntity
  8
5
  6
Continuous
 62
     7
370
    13
100
AcDbLine
 10
122.7104973018963
 20
-6.926383969105899
 30
0.0
 11
121.8569439113031
 21
-6.572830578512509
 31
0.0
  0
LINE
  5
348
330
1F
100
AcDbEntity
  8
5
  6
Continuous
 62
     7
370
    13
100
AcDbLine
 10
113.7569439113032
 20
-14.27283057851258
 30
0.0
 11
114.2569439113032
 21
-13.77283057851258
 31
0.0
  0
LINE
  5
349
330
1F
100
AcDbEntity
  8
5
  6
Continuous
 62
     7
370
    13
100
AcDbLine
 10
113.7569439113032
 20
-7.072830578512509
 30
0.0
 11
114.2569439113032
 21
-6.572830578512509
 31
0.0
  0
LINE
  5
34A
330
1F
100
AcDbEntity
  8
5
  6
Continuous
 62
     7
370
    13
100
AcDbLine
 10
-83.50115794495366
 20
-6.072830578512509
 30
0.0
 11
-81.90115794495352
 21
-6.072830578512509
 31
0.0
  0
LINE
  5
34B
330
1F
100
AcDbEntity
  8
5
  6
Continuous
 62
     7
370
    13
100
AcDbLine
 10
-194.4011579449534
 20
-6.072830578512509
 30
0.0
 11
-192.8011579449535
 21
-6.072830578512509
 31
0.0
  0
LINE
  5
34C
330
1F
100
AcDbEntity
  8
5
  6
Continuous
 62
     7
370
    13
100
AcDbLine
 10
9.35694391130312
 20
-11.2889483970977
 30
0.0
 11
9.35694391130312
 21
-12.07283057851251
 31
0.0
  0
LINE
  5
34D
330
1F
100
AcDbEntity
  8
5
  6
Continuous
 62
     7
370
    13
100
AcDbLine
 10
-83.50115794495366
 20
-6.072830578512509
 30
0.0
 11
-83.50115794495366
 21
-21.07283057851251
 31
0.0
  0
LINE
  5
34E
330
1F
100
AcDbEntity
  8
5
  6
Continuous
 62
     7
370
    13
100
AcDbLine
 10
-191.8011579449535
 20
-7.672830578512702
 30
0.0
 11
-190.6511579449534
 21
-7.672830578512702
 31
0.0
  0
LINE
  5
34F
330
1F
100
AcDbEntity
  8
5
  6
Continuous
 62
     7
370
    13
100
AcDbLine
 10
-192.8011579449535
 20
-21.07283057851251
 30
0.0
 11
-192.8011579449535
 21
-6.072830578512509
 31
0.0
  0
LINE
  5
350
330
1F
100
AcDbEntity
  8
5
  6
Continuous
 62
     7
370
    13
100
AcDbLine
 10
-194.4011579449534
 20
-21.07283057851251
 30
0.0
 11
-192.8011579449535
 21
-21.07283057851251
 31
0.0
  0
LINE
  5
351
330
1F
100
AcDbEntity
  8
5
  6
Continuous
 62
     7
370
    13
100
AcDbLine
 10
-83.90115794495352
 20
-6.072830578512509
 30
0.0
 11
-85.85115794495357
 21
-6.072830578512509
 31
0.0
  0
LINE
  5
352
330
1F
100
AcDbEntity
  8
5
  6
Continuous
 62
     7
370
    13
100
AcDbLine
 10
-83.50115794495366
 20
-21.07283057851251
 30
0.0
 11
-81.90115794495352
 21
-21.07283057851251
 31
0.0
  0
LINE
  5
353
330
1F
100
AcDbEntity
  8
5
  6
Continuous
 62
     7
370
    13
100
AcDbLine
 10
9.35694391130312
 20
49.56021934840734
 30
0.0
 11
9.35694391130312
 21
51.16021934840725
 31
0.0
  0
LINE
  5
354
330
1F
100
AcDbEntity
  8
5
  6
Continuous
 62
     7
370
    13
100
AcDbLine
 10
126.3569439113031
 20
162.0602193484074
 30
0.0
 11
126.3569439113031
 21
160.4602193484074
 31
0.0
  0
LINE
  5
355
330
1F
100
AcDbEntity
  8
5
  6
Continuous
 62
     7
370
    13
100
AcDbLine
 10
9.35694391130312
 20
160.4602193484074
 30
0.0
 11
23.65694391130307
 21
160.4602193484074
 31
0.0
  0
LINE
  5
356
330
1F
100
AcDbEntity
  8
5
  6
Continuous
 62
     7
370
    13
100
AcDbLine
 10
9.35694391130312
 20
160.4602193484074
 30
0.0
 11
9.35694391130312
 21
162.0602193484074
 31
0.0
  0
LINE
  5
357
330
1F
100
AcDbEntity
  8
5
  6
Continuous
 62
     7
370
    13
100
AcDbLine
 10
126.3569439113031
 20
51.16021934840725
 30
0.0
 11
126.3569439113031
 21
49.56021934840734
 31
0.0
  0
LINE
  5
358
330
1F
100
AcDbEntity
  8
5
  6
Continuous
 62
     7
370
    13
100
AcDbLine
 10
9.35694391130312
 20
162.0602193484074
 30
0.0
 11
102.1569439113032
 21
162.0602193484074
 31
0.0
  0
LINE
  5
359
330
1F
100
AcDbEntity
  8
5
  6
Continuous
 62
     7
370
    13
100
AcDbLine
 10
102.1569439113032
 20
49.56021934840734
 30
0.0
 11
9.35694391130312
 21
49.56021934840734
 31
0.0
  0
LINE
  5
35A
330
1F
100
AcDbEntity
  8
5
  6
Continuous
 62
     7
370
    13
100
AcDbLine
 10
23.65694391130307
 20
51.16021934840725
 30
0.0
 11
9.35694391130312
 21
51.16021934840725
 31
0.0
  0
LINE
  5
35B
330
1F
100
AcDbEntity
  8
5
  6
Continuous
 62
     7
370
    13
100
AcDbLine
 10
23.65694391130307
 20
51.16021934840725
 30
0.0
 11
23.65694391130307
 21
49.56021934840734
 31
0.0
  0
LINE
  5
35C
330
1F
100
AcDbEntity
  8
5
  6
Continuous
 62
     7
370
    13
100
AcDbLine
 10
23.65694391130307
 20
162.0602193484074
 30
0.0
 11
23.65694391130307
 21
150.8102193484074
 31
0.0
  0
LINE
  5
35D
330
1F
100
AcDbEntity
  8
5
  6
Continuous
 62
     7
370
    13
100
AcDbLine
 10
102.1569439113032
 20
162.0602193484074
 30
0.0
 11
102.1569439113032
 21
150.8102193484074
 31
0.0
  0
LINE
  5
35E
330
1F
100
AcDbEntity
  8
5
  6
Continuous
 62
     7
370
    13
100
AcDbLine
 10
113.7569439113032
 20
162.0602193484074
 30
0.0
 11
113.7569439113032
 21
160.4602193484074
 31
0.0
  0
LINE
  5
35F
330
1F
100
AcDbEntity
  8
5
  6
Continuous
 62
     7
370
    13
100
AcDbLine
 10
103.7569439113032
 20
162.0602193484074
 30
0.0
 11
126.3569439113031
 21
162.0602193484074
 31
0.0
  0
LINE
  5
360
330
1F
100
AcDbEntity
  8
5
  6
Continuous
 62
     7
370
    13
100
AcDbLine
 10
102.1569439113032
 20
160.4602193484074
 30
0.0
 11
126.3569439113031
 21
160.4602193484074
 31
0.0
  0
LINE
  5
361
330
1F
100
AcDbEntity
  8
5
  6
Continuous
 62
     7
370
    13
100
AcDbLine
 10
113.7569439113032
 20
51.16021934840725
 30
0.0
 11
113.7569439113032
 21
49.56021934840734
 31
0.0
  0
LINE
  5
362
330
1F
100
AcDbEntity
  8
5
  6
Continuous
 62
     7
370
    13
100
AcDbLine
 10
126.3569439113031
 20
49.56021934840734
 30
0.0
 11
103.7569439113032
 21
49.56021934840734
 31
0.0
  0
LINE
  5
363
330
1F
100
AcDbEntity
  8
5
  6
Continuous
 62
     7
370
    13
100
AcDbLine
 10
126.3569439113031
 20
51.16021934840725
 30
0.0
 11
102.1569439113032
 21
51.16021934840725
 31
0.0
  0
LINE
  5
364
330
1F
100
AcDbEntity
  8
5
  6
Continuous
 62
     7
370
    13
100
AcDbLine
 10
102.1569439113032
 20
60.81021934840734
 30
0.0
 11
102.1569439113032
 21
49.56021934840734
 31
0.0
  0
LINE
  5
365
330
1F
100
AcDbEntity
  8
5
  6
Continuous
 62
     7
370
    13
100
AcDbLine
 10
23.65694391130307
 20
60.81021934840734
 30
0.0
 11
23.65694391130307
 21
51.16021934840725
 31
0.0
  0
LINE
  5
366
330
1F
100
AcDbEntity
  8
5
  6
Continuous
 62
     7
370
    13
100
AcDbLine
 10
9.85694391130312
 20
-12.57283057851251
 30
0.0
 11
18.63729476150127
 21
-12.57283057851251
 31
0.0
  0
LINE
  5
367
330
1F
100
AcDbEntity
  8
5
  6
Continuous
 62
     7
370
    13
100
AcDbLine
 10
9.85694391130312
 20
-16.77283057851258
 30
0.0
 11
18.63729476150127
 21
-16.77283057851258
 31
0.0
  0
LINE
  5
368
330
1F
100
AcDbEntity
  8
5
  6
Continuous
 62
     7
370
    13
100
AcDbLine
 10
9.35694391130312
 20
-17.27283057851258
 30
0.0
 11
9.35694391130312
 21
-19.07283057851251
 31
0.0
  0
LINE
  5
369
330
1F
100
AcDbEntity
  8
5
  6
Continuous
 62
     7
370
    13
100
AcDbLine
 10
23.65694391130307
 20
-6.072830578512509
 30
0.0
 11
23.65694391130307
 21
-7.672830578512702
 31
0.0
  0
LINE
  5
36A
330
1F
100
AcDbEntity
  8
5
  6
Continuous
 62
     7
370
    13
100
AcDbLine
 10
114.7569439113032
 20
-9.572830578512509
 30
0.0
 11
122.6372947615013
 21
-9.572830578512509
 31
0.0
  0
LINE
  5
36B
330
1F
100
AcDbEntity
  8
5
  6
Continuous
 62
     7
370
    13
100
AcDbLine
 10
113.7569439113032
 20
-8.572830578512509
 30
0.0
 11
113.7569439113032
 21
-7.072830578512509
 31
0.0
  0
LINE
  5
36C
330
1F
100
AcDbEntity
  8
5
  6
Continuous
 62
     7
370
    13
100
AcDbLine
 10
102.1569439113032
 20
-16.07283057851251
 30
0.0
 11
102.1569439113032
 21
-6.072830578512509
 31
0.0
  0
LINE
  5
36D
330
1F
100
AcDbEntity
  8
5
  6
Continuous
 62
     7
370
    13
100
AcDbLine
 10
23.65694391130307
 20
-6.072830578512509
 30
0.0
 11
102.1569439113032
 21
-6.072830578512509
 31
0.0
  0
LINE
  5
36E
330
1F
100
AcDbEntity
  8
5
  6
Continuous
 62
     7
370
    13
100
AcDbLine
 10
103.7569439113032
 20
-15.57283057851251
 30
0.0
 11
103.7569439113032
 21
-7.672830578512702
 31
0.0
  0
LINE
  5
36F
330
1F
100
AcDbEntity
  8
5
  6
Continuous
 62
     7
370
    13
100
AcDbLine
 10
114.2569439113032
 20
-13.77283057851258
 30
0.0
 11
122.6372947615013
 21
-13.77283057851258
 31
0.0
  0
LINE
  5
370
330
1F
100
AcDbEntity
  8
5
  6
Continuous
 62
     7
370
    13
100
AcDbLine
 10
122.7104973018963
 20
-6.926383969105899
 30
0.0
 11
126.0033905207102
 21
-9.719277187919403
 31
0.0
  0
LINE
  5
371
330
1F
100
AcDbEntity
  8
5
  6
Continuous
 62
     7
370
    13
100
AcDbLine
 10
121.8569439113031
 20
-6.572830578512509
 30
0.0
 11
114.2569439113032
 21
-6.572830578512509
 31
0.0
  0
LINE
  5
372
330
1F
100
AcDbEntity
  8
5
  6
Continuous
 62
     7
370
    13
100
AcDbLine
 10
125.8666535734582
 20
-16.07088864608158
 30
0.0
 11
124.2655073430482
 21
-16.48139401025799
 31
0.0
  0
LINE
  5
373
330
1F
100
AcDbEntity
  8
5
  6
Continuous
 62
     7
370
    13
100
AcDbLine
 10
126.3569439113031
 20
-15.4728305785126
 30
0.0
 11
126.3569439113031
 21
-10.57283057851251
 31
0.0
  0
LINE
  5
374
330
1F
100
AcDbEntity
  8
5
  6
Continuous
 62
     7
370
    13
100
AcDbLine
 10
-201.9011579449534
 20
-7.672830578512702
 30
0.0
 11
-196.2511579449535
 21
-7.672830578512702
 31
0.0
  0
LINE
  5
375
330
1F
100
AcDbEntity
  8
5
  6
Continuous
 62
     7
370
    13
100
AcDbLine
 10
-74.50115794495366
 20
-7.672830578512702
 30
0.0
 11
-80.05115794495362
 21
-7.672830578512702
 31
0.0
  0
LINE
  5
376
330
1F
100
AcDbEntity
  8
5
  6
Continuous
 62
     7
370
    13
100
AcDbLine
 10
-74.00115794495366
 20
-8.172830578512702
 30
0.0
 11
-74.00115794495366
 21
-15.07283057851251
 31
0.0
  0
LINE
  5
377
330
1F
100
AcDbEntity
  8
5
  6
Continuous
 62
     7
370
    13
100
AcDbLine
 10
-81.90115794495352
 20
-21.07283057851251
 30
0.0
 11
-81.90115794495352
 21
-6.072830578512509
 31
0.0
  0
LINE
  5
378
330
1F
100
AcDbEntity
  8
5
  6
Continuous
 62
     7
370
    13
100
AcDbLine
 10
-74.00115794495366
 20
-8.172830578512702
 30
0.0
 11
-74.50115794495366
 21
-7.672830578512702
 31
0.0
  0
LINE
  5
379
330
1F
100
AcDbEntity
  8
5
  6
Continuous
 62
     7
370
    13
100
AcDbLine
 10
102.1569439113032
 20
-7.672830578512702
 30
0.0
 11
103.7569439113032
 21
-7.672830578512702
 31
0.0
  0
LINE
  5
37A
330
1F
100
AcDbEntity
  8
5
  6
Continuous
 62
     7
370
    13
100
AcDbLine
 10
23.65694391130307
 20
-7.672830578512702
 30
0.0
 11
12.57306172988808
 21
-7.672830578512702
 31
0.0
  0
LINE
  5
37B
330
1F
100
AcDbEntity
  8
5
  6
Continuous
 62
     7
370
    13
100
AcDbLine
 10
11.7195083392952
 20
-8.026383969106007
 30
0.0
 11
9.710497301896226
 21
-10.43539500650451
 31
0.0
  0
LINE
  5
37C
330
1F
100
AcDbEntity
  8
5
  6
Continuous
 62
     7
370
    13
100
AcDbLine
 10
11.7195083392952
 20
-8.026383969106007
 30
0.0
 11
12.57306172988808
 21
-7.672830578512702
 31
0.0
  0
LINE
  5
37D
330
1F
100
AcDbEntity
  8
5
  6
Continuous
 62
     7
370
    13
100
AcDbLine
 10
-194.4011579449534
 20
-6.072830578512509
 30
0.0
 11
-194.4011579449534
 21
-21.07283057851251
 31
0.0
  0
LINE
  5
37E
330
1F
100
AcDbEntity
  8
5
  6
Continuous
 62
     7
370
    13
100
AcDbLine
 10
72.31549202697522
 20
47.0537720923389
 30
0.0
 11
80.39839579563011
 21
47.0537720923389
 31
0.0
  0
LINE
  5
37F
330
1F
100
AcDbEntity
  8
5
  6
Continuous
 62
     7
370
    13
100
AcDbLine
 10
74.3362179691394
 20
47.0537720923389
 30
0.0
 11
74.3362179691394
 21
44.56637948350865
 31
0.0
  0
LINE
  5
380
330
1F
100
AcDbEntity
  8
5
  6
Continuous
 62
     7
370
    13
100
AcDbLine
 10
79.38803282454819
 20
44.25377209233895
 30
0.0
 11
73.32585499805737
 21
44.25377209233895
 31
0.0
  0
LINE
  5
381
330
1F
100
AcDbEntity
  8
5
  6
Continuous
 62
     7
370
    13
100
AcDbLine
 10
80.39839579563011
 20
47.71021934840743
 30
0.0
 11
72.31549202697522
 21
47.71021934840743
 31
0.0
  0
LINE
  5
382
330
1F
100
AcDbEntity
  8
5
  6
Continuous
 62
     7
370
    13
100
AcDbLine
 10
72.31549202697522
 20
47.71021934840743
 30
0.0
 11
72.31549202697522
 21
44.56637948350865
 31
0.0
  0
LINE
  5
383
330
1F
100
AcDbEntity
  8
5
  6
Continuous
 62
     7
370
    13
100
AcDbLine
 10
80.39839579563011
 20
47.71021934840743
 30
0.0
 11
80.39839579563011
 21
44.56637948350865
 31
0.0
  0
LINE
  5
384
330
1F
100
AcDbEntity
  8
5
  6
Continuous
 62
     7
370
    13
100
AcDbLine
 10
78.3776698534673
 20
47.0537720923389
 30
0.0
 11
78.3776698534673
 21
44.56637948350865
 31
0.0
  0
LINE
  5
385
330
1F
100
AcDbEntity
  8
5
  6
Continuous
 62
     7
370
    13
100
AcDbLine
 10
43.3776698534673
 20
47.0537720923389
 30
0.0
 11
43.3776698534673
 21
44.56637948350865
 31
0.0
  0
LINE
  5
386
330
1F
100
AcDbEntity
  8
5
  6
Continuous
 62
     7
370
    13
100
AcDbLine
 10
37.31549202697522
 20
47.71021934840743
 30
0.0
 11
52.97574606482021
 21
47.71021934840743
 31
0.0
  0
LINE
  5
387
330
1F
100
AcDbEntity
  8
5
  6
Continuous
 62
     7
370
    13
100
AcDbLine
 10
39.3362179691394
 20
47.0537720923389
 30
0.0
 11
39.3362179691394
 21
44.56637948350865
 31
0.0
  0
LINE
  5
388
330
1F
100
AcDbEntity
  8
5
  6
Continuous
 62
     7
370
    13
100
AcDbLine
 10
37.31549202697522
 20
44.56637948350865
 30
0.0
 11
37.31549202697522
 21
47.71021934840743
 31
0.0
  0
LINE
  5
389
330
1F
100
AcDbEntity
  8
5
  6
Continuous
 62
     7
370
    13
100
AcDbLine
 10
45.39839579563136
 20
44.56637948350865
 30
0.0
 11
45.39839579563011
 21
47.71021934840743
 31
0.0
  0
LINE
  5
38A
330
1F
100
AcDbEntity
  8
5
  6
Continuous
 62
     7
370
    13
100
AcDbLine
 10
45.39839579563136
 20
46.96024134873002
 30
0.0
 11
52.97574606482021
 21
46.96024134873002
 31
0.0
  0
LINE
  5
38B
330
1F
100
AcDbEntity
  8
5
  6
Continuous
 62
     7
370
    13
100
AcDbLine
 10
37.31549202697522
 20
47.0537720923389
 30
0.0
 11
45.39839579563136
 21
47.0537720923389
 31
0.0
  0
LINE
  5
38C
330
1F
100
AcDbEntity
  8
5
  6
Continuous
 62
     7
370
    13
100
AcDbLine
 10
38.32585499805737
 20
44.25377209233895
 30
0.0
 11
44.38803337609329
 21
44.25377209233895
 31
0.0
  0
ARC
  5
38D
330
1F
100
AcDbEntity
  8
5
  6
Continuous
 62
     7
370
    13
100
AcDbCircle
 10
51.82104552644137
 20
45.50489954746874
 30
0.0
 40
2.044658198739099
100
AcDbArc
 50
235.6157525319481
 51
304.3842474680282
  0
ARC
  5
38E
330
1F
100
AcDbEntity
  8
5
  6
Continuous
 62
     7
370
    13
100
AcDbCircle
 10
48.35694391130312
 20
51.10297575882234
 30
0.0
 40
7.642734410092454
100
AcDbArc
 50
252.4120462260055
 51
287.5879537739912
  0
ARC
  5
38F
330
1F
100
AcDbEntity
  8
5
  6
Continuous
 62
     7
370
    13
100
AcDbCircle
 10
44.89284229616521
 20
45.50489954746851
 30
0.0
 40
2.044658198738478
100
AcDbArc
 50
235.6157525319623
 51
304.3842474680378
  0
ARC
  5
390
330
1F
100
AcDbEntity
  8
5
  6
Continuous
 62
     7
370
    13
100
AcDbCircle
 10
33.38803282454808
 20
46.04284801623524
 30
0.0
 40
1.789075923895687
100
AcDbArc
 50
235.6157525319835
 51
304.3842474680457
  0
ARC
  5
391
330
1F
100
AcDbEntity
  8
5
  6
Continuous
 62
     7
370
    13
100
AcDbCircle
 10
30.35694391130312
 20
50.94116470116901
 30
0.0
 40
6.687392608830055
100
AcDbArc
 50
252.4120462260043
 51
287.587953773998
  0
ARC
  5
392
330
1F
100
AcDbEntity
  8
5
  6
Continuous
 62
     7
370
    13
100
AcDbCircle
 10
27.32585499805737
 20
46.04284801623524
 30
0.0
 40
1.789075923896362
100
AcDbArc
 50
235.615752531952
 51
304.3842474680457
  0
ARC
  5
393
330
1F
100
AcDbEntity
  8
5
  6
Continuous
 62
     7
370
    13
100
AcDbCircle
 10
62.32585499805737
 20
46.04284801623524
 30
0.0
 40
1.789075923896362
100
AcDbArc
 50
235.615752531952
 51
304.3842474680465
  0
ARC
  5
394
330
1F
100
AcDbEntity
  8
5
  6
Continuous
 62
     7
370
    13
100
AcDbCircle
 10
65.35694391130312
 20
50.94116470116901
 30
0.0
 40
6.687392608830047
100
AcDbArc
 50
252.4120462260046
 51
287.5879537739982
  0
ARC
  5
395
330
1F
100
AcDbEntity
  8
5
  6
Continuous
 62
     7
370
    13
100
AcDbCircle
 10
68.38803282454819
 20
46.04284801623524
 30
0.0
 40
1.789075923895687
100
AcDbArc
 50
235.6157525319835
 51
304.384247468045
  0
ARC
  5
396
330
1F
100
AcDbEntity
  8
5
  6
Continuous
 62
     7
370
    13
100
AcDbCircle
 10
16.35694391129437
 20
-14.6728305785127
 30
0.0
 40
3.100000000006326
100
AcDbArc
 50
317.3576900201707
 51
42.64230997983352
  0
ARC
  5
397
330
1F
100
AcDbEntity
  8
5
  6
Continuous
 62
     7
370
    13
100
AcDbCircle
 10
120.3569439112944
 20
-11.6728305785127
 30
0.0
 40
3.100000000006347
100
AcDbArc
 50
317.357690020171
 51
42.64230997983316
  0
ARC
  5
398
330
1F
100
AcDbEntity
  8
5
  6
Continuous
 62
     7
370
    13
100
AcDbCircle
 10
114.7569439112963
 20
-8.572830578519898
 30
0.0
 40
0.9999999999930083
100
AcDbArc
 50
179.9999999995766
 51
270.0000000004006
  0
ARC
  5
399
330
1F
100
AcDbEntity
  8
5
  6
Continuous
 62
     7
370
    13
100
AcDbCircle
 10
79.38803282454819
 20
46.04284801623524
 30
0.0
 40
1.789075923895687
100
AcDbArc
 50
235.6157525319835
 51
304.384247468045
  0
ARC
  5
39A
330
1F
100
AcDbEntity
  8
5
  6
Continuous
 62
     7
370
    13
100
AcDbCircle
 10
76.35694391130312
 20
50.94116470116901
 30
0.0
 40
6.687392608830047
100
AcDbArc
 50
252.4120462260046
 51
287.5879537739982
  0
ARC
  5
39B
330
1F
100
AcDbEntity
  8
5
  6
Continuous
 62
     7
370
    13
100
AcDbCircle
 10
73.32585499805737
 20
46.04284801623524
 30
0.0
 40
1.789075923896362
100
AcDbArc
 50
235.615752531952
 51
304.3842474680465
  0
ARC
  5
39C
330
1F
100
AcDbEntity
  8
5
  6
Continuous
 62
     7
370
    13
100
AcDbCircle
 10
41.35694391130312
 20
44.25377209234078
 30
0.0
 40
2.0447632416369
100
AcDbArc
 50
180.0000000000512
 51
8.793976886946332
  0
ARC
  5
39D
330
1F
100
AcDbEntity
  8
5
  6
Continuous
 62
     7
370
    13
100
AcDbCircle
 10
38.32585499805737
 20
46.04284801623524
 30
0.0
 40
1.789075923896362
100
AcDbArc
 50
235.615752531952
 51
304.3842474680457
  0
ARC
  5
39E
330
1F
100
AcDbEntity
  8
5
  6
Continuous
 62
     7
370
    13
100
AcDbCircle
 10
41.35694391130312
 20
50.94116470116901
 30
0.0
 40
6.687392608830055
100
AcDbArc
 50
252.4120462260043
 51
287.587953773998
  0
ARC
  5
39F
330
1F
100
AcDbEntity
  8
5
  6
Continuous
 62
     7
370
    13
100
AcDbCircle
 10
44.38803282454921
 20
46.04284801623524
 30
0.0
 40
1.789075923896313
100
AcDbArc
 50
235.6157525319543
 51
304.384247468048
  0
CIRCLE
  5
3A0
330
1F
100
AcDbEntity
  8
5
  6
Continuous
 62
     7
370
    13
100
AcDbCircle
 10
-198.9011579449534
 20
-12.07283057851251
 30
0.0
 40
1.599999999999909
  0
CIRCLE
  5
3A1
330
1F
100
AcDbEntity
  8
5
  6
Continuous
 62
     7
370
    13
100
AcDbCircle
 10
-77.32386363636363
 20
-12.07283057851251
 30
0.0
 40
1.600000000000108
  0
ARC
  5
3A2
330
1F
100
AcDbEntity
  8
5
  6
Continuous
 62
     7
370
    13
100
AcDbCircle
 10
102.2569439113032
 20
161.9602193484074
 30
0.0
 40
1.5
100
AcDbArc
 50
270.0
 51
0.0
  0
ARC
  5
3A3
330
1F
100
AcDbEntity
  8
5
  6
Continuous
 62
     7
370
    13
100
AcDbCircle
 10
100.6569439113032
 20
163.5602193484074
 30
0.0
 40
1.5
100
AcDbArc
 50
270.0
 51
0.0
  0
ARC
  5
3A4
330
1F
100
AcDbEntity
  8
5
  6
Continuous
 62
     7
370
    13
100
AcDbCircle
 10
100.6569439113032
 20
48.06021934840734
 30
0.0
 40
1.5
100
AcDbArc
 50
0.0
 51
90.0
  0
ARC
  5
3A5
330
1F
100
AcDbEntity
  8
5
  6
Continuous
 62
     7
370
    13
100
AcDbCircle
 10
102.2569439113032
 20
49.66021934840725
 30
0.0
 40
1.5
100
AcDbArc
 50
0.0
 51
90.0
  0
ARC
  5
3A6
330
1F
100
AcDbEntity
  8
5
  6
Continuous
 62
     7
370
    13
100
AcDbCircle
 10
-192.4011579449534
 20
-8.072830578512509
 30
0.0
 40
2.0
100
AcDbArc
 50
90.0
 51
101.5369590328188
  0
ARC
  5
3A7
330
1F
100
AcDbEntity
  8
5
  6
Continuous
 62
     7
370
    13
100
AcDbCircle
 10
-191.8011579449535
 20
-8.672830578512702
 30
0.0
 40
1.0
100
AcDbArc
 50
90.0
 51
180.0
  0
ARC
  5
3A8
330
1F
100
AcDbEntity
  8
5
  6
Continuous
 62
     7
370
    13
100
AcDbCircle
 10
-84.50115794495366
 20
-8.672830578512702
 30
0.0
 40
1.0
100
AcDbArc
 50
0.0
 51
90.0
  0
ARC
  5
3A9
330
1F
100
AcDbEntity
  8
5
  6
Continuous
 62
     7
370
    13
100
AcDbCircle
 10
-83.90115794495352
 20
-8.072830578512509
 30
0.0
 40
1.999999999999851
100
AcDbArc
 50
78.4630409671868
 51
90.0
  0
LINE
  5
3AA
330
1F
100
AcDbEntity
  8
5
  6
CENTERX2
 62
     3
370
    13
100
AcDbLine
 10
120.3569439113031
 20
44.80725672306565
 30
0.0
 11
120.3569439113031
 21
165.5078036692827
 31
0.0
  0
LINE
  5
3AB
330
1F
100
AcDbEntity
  8
5
  6
CENTERX2
 62
     3
370
    13
100
AcDbLine
 10
48.35694391130312
 20
156.6601973480846
 30
0.0
 11
48.35694391130312
 21
168.1601973480846
 31
0.0
  0
LINE
  5
3AC
330
1F
100
AcDbEntity
  8
5
  6
CENTERX2
 62
     3
370
    13
100
AcDbLine
 10
48.35694391130312
 20
43.46024134873002
 30
0.0
 11
48.35694391130312
 21
54.96024134873002
 31
0.0
  0
LINE
  5
3AD
330
1F
100
AcDbEntity
  8
5
  6
CENTERX2
 62
     3
370
    13
100
AcDbLine
 10
-75.80117994527552
 20
-37.67283057851259
 30
0.0
 11
-87.30117994527552
 21
-37.67283057851259
 31
0.0
  0
LINE
  5
3AE
330
1F
100
AcDbEntity
  8
5
  6
CENTERX2
 62
     3
370
    13
100
AcDbLine
 10
-75.80117994527552
 20
-67.17283057851259
 30
0.0
 11
-87.30117994527552
 21
-67.17283057851259
 31
0.0
  0
LINE
  5
3AF
330
1F
100
AcDbEntity
  8
5
  6
CENTERX2
 62
     3
370
    13
100
AcDbLine
 10
-189.0011359446305
 20
-67.17283057851259
 30
0.0
 11
-200.5011359446305
 21
-67.17283057851259
 31
0.0
  0
LINE
  5
3B0
330
1F
100
AcDbEntity
  8
5
  6
CENTERX2
 62
     3
370
    13
100
AcDbLine
 10
-189.0011359446305
 20
-37.67283057851259
 30
0.0
 11
-200.5011359446305
 21
-37.67283057851259
 31
0.0
  0
LINE
  5
3B1
330
1F
100
AcDbEntity
  8
5
  6
CENTERX2
 62
     3
370
    13
100
AcDbLine
 10
30.35694391130312
 20
55.00543028404755
 30
0.0
 11
30.35694391130312
 21
44.25377209233895
 31
0.0
  0
LINE
  5
3B2
330
1F
100
AcDbEntity
  8
5
  6
CENTERX2
 62
     3
370
    13
100
AcDbLine
 10
25.50720165011023
 20
-13.57283057851251
 30
0.0
 11
35.20668617249623
 21
-13.57283057851251
 31
0.0
  0
LINE
  5
3B3
330
1F
100
AcDbEntity
  8
5
  6
CENTERX2
 62
     3
370
    13
100
AcDbLine
 10
30.35694391130312
 20
-18.42257283970528
 30
0.0
 11
30.35694391130312
 21
-8.723088317319707
 31
0.0
  0
LINE
  5
3B4
330
1F
100
AcDbEntity
  8
5
  6
CENTERX2
 62
     3
370
    13
100
AcDbLine
 10
65.35694391130312
 20
-18.42257283970528
 30
0.0
 11
65.35694391130312
 21
-8.723088317319707
 31
0.0
  0
LINE
  5
3B5
330
1F
100
AcDbEntity
  8
5
  6
CENTERX2
 62
     3
370
    13
100
AcDbLine
 10
60.50720165011023
 20
-13.57283057851251
 30
0.0
 11
70.20668617249623
 21
-13.57283057851251
 31
0.0
  0
LINE
  5
3B6
330
1F
100
AcDbEntity
  8
5
  6
CENTERX2
 62
     3
370
    13
100
AcDbLine
 10
-138.1511579449534
 20
-0.981458763053098
 30
0.0
 11
-138.1511579449534
 21
-15.9814587630531
 31
0.0
  0
LINE
  5
3B7
330
1F
100
AcDbEntity
  8
5
  6
CENTERX2
 62
     3
370
    13
100
AcDbLine
 10
36.62924917669329
 20
-18.37283057851249
 30
0.0
 11
45.95694391130337
 21
-18.37283057851249
 31
0.0
  0
LINE
  5
3B8
330
1F
100
AcDbEntity
  8
5
  6
CENTERX2
 62
     3
370
    13
100
AcDbLine
 10
101.1880352578912
 20
45.06021934840734
 30
0.0
 11
105.1880352578912
 21
45.06021934840734
 31
0.0
  0
LINE
  5
3B9
330
1F
100
AcDbEntity
  8
5
  6
CENTERX2
 62
     3
370
    13
100
AcDbLine
 10
100.3733499880732
 20
166.5602193484074
 30
0.0
 11
106.3733499880732
 21
166.5602193484074
 31
0.0
  0
LINE
  5
3BA
330
1F
100
AcDbEntity
  8
5
  6
CENTERX2
 62
     3
370
    13
100
AcDbLine
 10
99.73028320542824
 20
-12.07283057851251
 30
0.0
 11
105.7302832054282
 21
-12.07283057851251
 31
0.0
  0
LINE
  5
3BB
330
1F
100
AcDbEntity
  8
5
  6
CENTERX2
 62
     3
370
    13
100
AcDbLine
 10
65.35694391130312
 20
55.00543028404755
 30
0.0
 11
65.35694391130312
 21
44.25377209233895
 31
0.0
  0
LINE
  5
3BC
330
1F
100
AcDbEntity
  8
5
  6
CENTERX2
 62
     3
370
    13
100
AcDbLine
 10
65.35694391130312
 20
167.3666666044756
 30
0.0
 11
65.35694391130312
 21
156.4837043648726
 31
0.0
  0
LINE
  5
3BD
330
1F
100
AcDbEntity
  8
5
  6
CENTERX2
 62
     3
370
    13
100
AcDbLine
 10
30.35694391130312
 20
167.3666666044756
 30
0.0
 11
30.35694391130312
 21
156.4837043648726
 31
0.0
  0
LINE
  5
3BE
330
1F
100
AcDbEntity
  8
5
  6
CENTERX2
 62
     3
370
    13
100
AcDbLine
 10
-85.82386363636363
 20
-15.07283057851251
 30
0.0
 11
-77.32386363636363
 21
-15.07283057851251
 31
0.0
  0
LINE
  5
3BF
330
1F
100
AcDbEntity
  8
5
  6
CENTERX2
 62
     3
370
    13
100
AcDbLine
 10
-196.6009953715634
 20
-15.07283057851251
 30
0.0
 11
-190.3199925136455
 21
-15.07283057851251
 31
0.0
  0
LINE
  5
3C0
330
1F
100
AcDbEntity
  8
5
  6
CENTERX2
 62
     3
370
    13
100
AcDbLine
 10
16.35694391130312
 20
165.5078036692827
 30
0.0
 11
16.35694391130312
 21
44.00780366928265
 31
0.0
  0
LINE
  5
3C1
330
1F
100
AcDbEntity
  8
5
  6
CENTERX2
 62
     3
370
    13
100
AcDbLine
 10
113.1099528206373
 20
-11.6728305785127
 30
0.0
 11
129.7099528206371
 21
-11.6728305785127
 31
0.0
  0
LINE
  5
3C2
330
1F
100
AcDbEntity
  8
5
  6
CENTERX2
 62
     3
370
    13
100
AcDbLine
 10
120.3569439113031
 20
-3.813785010091095
 30
0.0
 11
120.3569439113031
 21
-19.81378501009098
 31
0.0
  0
LINE
  5
3C3
330
1F
100
AcDbEntity
  8
5
  6
CENTERX2
 62
     3
370
    13
100
AcDbLine
 10
-195.1511579449534
 20
-12.07283057851251
 30
0.0
 11
-190.3199925136455
 21
-12.07283057851251
 31
0.0
  0
LINE
  5
3C4
330
1F
100
AcDbEntity
  8
5
  6
CENTERX2
 62
     3
370
    13
100
AcDbLine
 10
71.50720165012126
 20
-18.37283057852369
 30
0.0
 11
81.62924917669329
 21
-18.37283057851249
 31
0.0
  0
LINE
  5
3C5
330
1F
100
AcDbEntity
  8
5
  6
CENTERX2
 62
     3
370
    13
100
AcDbLine
 10
76.35694391131437
 20
-23.22257283971649
 30
0.0
 11
76.35694391131437
 21
-13.52308831733089
 31
0.0
  0
LINE
  5
3C6
330
1F
100
AcDbEntity
  8
5
  6
CENTERX2
 62
     3
370
    13
100
AcDbLine
 10
41.35694391130312
 20
-23.22257283971649
 30
0.0
 11
41.35694391130312
 21
-13.52308831733089
 31
0.0
  0
LINE
  5
3C7
330
1F
100
AcDbEntity
  8
5
  6
CENTERX2
 62
     3
370
    13
100
AcDbLine
 10
76.35694391130312
 20
55.00543028404755
 30
0.0
 11
76.35694391130312
 21
44.25377209233895
 31
0.0
  0
LINE
  5
3C8
330
1F
100
AcDbEntity
  8
5
  6
CENTERX2
 62
     3
370
    13
100
AcDbLine
 10
76.35694391130312
 20
167.3666666044757
 30
0.0
 11
76.35694391130312
 21
156.4837043648726
 31
0.0
  0
LINE
  5
3C9
330
1F
100
AcDbEntity
  8
5
  6
CENTERX2
 62
     3
370
    13
100
AcDbLine
 10
41.35694391130312
 20
156.4837043648726
 30
0.0
 11
41.35694391130312
 21
169.6353567008924
 31
0.0
  0
LINE
  5
3CA
330
1F
100
AcDbEntity
  8
5
  6
CENTERX2
 62
     3
370
    13
100
AcDbLine
 10
41.35694391130312
 20
55.00543028404755
 30
0.0
 11
41.35694391130312
 21
41.25377209233895
 31
0.0
  0
LINE
  5
3CB
330
1F
100
AcDbEntity
  8
5
  6
CENTER
 62
     3
370
    13
100
AcDbLine
 10
-202.0011579449535
 20
-12.07283057851251
 30
0.0
 11
-195.8011579449535
 21
-12.07283057851251
 31
0.0
  0
LINE
  5
3CC
330
1F
100
AcDbEntity
  8
5
  6
CENTER
 62
     3
370
    13
100
AcDbLine
 10
-198.9011579449534
 20
-15.07283057851251
 30
0.0
 11
-198.9011579449534
 21
-9.072830578512509
 31
0.0
  0
LINE
  5
3CD
330
1F
100
AcDbEntity
  8
5
  6
CENTER
 62
     3
370
    13
100
AcDbLine
 10
-77.32386363636363
 20
-15.07283057851251
 30
0.0
 11
-77.32386363636363
 21
-9.072830578512509
 31
0.0
  0
LINE
  5
3CE
330
1F
100
AcDbEntity
  8
5
  6
CENTER
 62
     3
370
    13
100
AcDbLine
 10
-85.82386363636363
 20
-12.07283057851251
 30
0.0
 11
-74.32386363636363
 21
-12.07283057851251
 31
0.0
  0
CIRCLE
  5
3CF
330
1F
100
AcDbEntity
  8
5
  6
Continuous
 62
     3
370
    13
100
AcDbCircle
 10
-198.9011579449534
 20
-12.07283057851251
 30
0.0
 40
2.0
  0
CIRCLE
  5
3D0
330
1F
100
AcDbEntity
  8
5
  6
Continuous
 62
     3
370
    13
100
AcDbCircle
 10
-77.32386363636363
 20
-12.07283057851251
 30
0.0
 40
2.0
  0
ARC
  5
3D1
330
1F
100
AcDbEntity
  8
5
  6
Continuous
 62
     2
370
    13
100
AcDbCircle
 10
76.35694391130335
 20
44.25377209233893
 30
0.0
 40
2.044763241637042
100
AcDbArc
 50
179.9999999999994
 51
8.793976886998138
  0
LINE
  5
3D2
330
1F
100
AcDbEntity
  8
10
  6
DASHED2
 62
     4
370
    13
100
AcDbLine
 10
28.35694391129437
 20
-64.67283057851225
 30
0.0
 11
28.35694391129437
 21
-29.67283057851225
 31
0.0
  0
LINE
  5
3D3
330
1F
100
AcDbEntity
  8
10
  6
DASHED2
 62
     4
370
    13
100
AcDbLine
 10
28.35694391129437
 20
-29.67283057851225
 30
0.0
 11
26.85694391129437
 21
-29.67283057851225
 31
0.0
  0
LINE
  5
3D4
330
1F
100
AcDbEntity
  8
10
  6
DASHED2
 62
     4
370
    13
100
AcDbLine
 10
26.85694391129437
 20
-64.67283057851225
 30
0.0
 11
28.35694391129437
 21
-64.67283057851225
 31
0.0
  0
INSERT
  5
3D5
330
1F
100
AcDbEntity
  8
0
  6
Continuous
100
AcDbBlockReference
  2
DC_GROUP_W_GSL_S_010_2_3
 10
0.0
 20
0.0
 30
0.0
  0
INSERT
  5
3D6
330
1F
100
AcDbEntity
  8
9
  6
Continuous
100
AcDbBlockReference
  2
DC_GROUP_W_GSL_S_010_2_4
 10
0.0
 20
0.0
 30
0.0
  0
VIEWPORT
  5
B8
102
{ACAD_XDICTIONARY
360
3DE
102
}
330
1B
100
AcDbEntity
 67
     1
  8
0
100
AcDbViewport
 10
0.0
 20
0.0
 30
0.0
 40
2364.0
 41
1621.536919925734
 68
     1
 69
     1
 12
0.0
 22
0.0
 13
0.0
 23
0.0
 14
0.5
 24
0.5
 15
0.0
 25
0.0
 16
0.0
 26
0.0
 36
1.0
 17
0.0
 27
0.0
 37
0.0
 42
50.0
 43
0.0
 44
0.0
 45
1621.536919925734
 50
0.0
 51
0.0
 72
   100
 90
   557152
  1

281
     0
 71
     1
 74
     0
110
0.0
120
0.0
130
0.0
111
1.0
121
0.0
131
0.0
112
0.0
122
1.0
132
0.0
 79
     0
146
0.0
  0
ENDSEC
  0
SECTION
  2
OBJECTS
  0
DICTIONARY
  5
C
330
0
100
AcDbDictionary
281
     1
  3
ACAD_GROUP
350
D
  3
ACAD_LAYOUT
350
1A
  3
ACAD_MATERIAL
350
43
  3
ACAD_MLEADERSTYLE
350
3D9
  3
ACAD_MLINESTYLE
350
17
  3
ACAD_PLOTSETTINGS
350
19
  3
ACAD_PLOTSTYLENAME
350
E
  3
ACAD_SCALELIST
350
47
  3
ACAD_VISUALSTYLE
350
2A
  3
AcDbVariableDictionary
350
3D7
  0
DICTIONARY
  5
3E0
330
8
100
AcDbDictionary
280
     1
281
     1
  3
ACAD_XREC_ROUNDTRIP
360
3E1
  0
DICTIONARY
  5
3DE
330
B8
100
AcDbDictionary
280
     1
281
     1
  3
ACAD_XREC_ROUNDTRIP
360
3DF
  0
DICTIONARY
  5
D
102
{ACAD_REACTORS
330
C
102
}
330
C
100
AcDbDictionary
281
     1
  0
DICTIONARY
  5
1A
102
{ACAD_REACTORS
330
C
102
}
330
C
100
AcDbDictionary
281
     1
  3
Layout1
350
1E
  3
Layout2
350
26
  3
Model
350
22
  0
DICTIONARY
  5
43
102
{ACAD_REACTORS
330
C
102
}
330
C
100
AcDbDictionary
281
     1
  3
ByBlock
350
45
  3
ByLayer
350
44
  3
Global
350
46
  0
DICTIONARY
  5
3D9
102
{ACAD_REACTORS
330
C
102
}
330
C
100
AcDbDictionary
281
     1
  0
DICTIONARY
  5
17
102
{ACAD_REACTORS
330
C
102
}
330
C
100
AcDbDictionary
281
     1
  3
Standard
350
18
  0
DICTIONARY
  5
19
102
{ACAD_REACTORS
330
C
102
}
330
C
100
AcDbDictionary
281
     1
  0
ACDBDICTIONARYWDFLT
  5
E
102
{ACAD_REACTORS
330
C
102
}
330
C
100
AcDbDictionary
281
     1
  3
Normal
350
F
100
AcDbDictionaryWithDefault
340
F
  0
DICTIONARY
  5
47
102
{ACAD_REACTORS
330
C
102
}
330
C
100
AcDbDictionary
281
     1
  3
A0
350
48
  3
A1
350
49
  3
A2
350
4A
  3
A3
350
4B
  3
A4
350
4C
  3
A5
350
4D
  3
A6
350
4E
  3
A7
350
4F
  3
A8
350
50
  3
A9
350
51
  3
B0
350
52
  3
B1
350
53
  3
B2
350
54
  3
B3
350
55
  3
B4
350
56
  3
B5
350
57
  3
B6
350
58
  3
B7
350
59
  3
B8
350
5A
  3
B9
350
5B
  3
C0
350
5C
  3
C1
350
5D
  3
C2
350
5E
  3
C3
350
5F
  3
C4
350
60
  3
C5
350
61
  3
C6
350
62
  3
C7
350
63
  3
C8
350
64
  3
C9
350
65
  3
D0
350
66
  3
D1
350
67
  3
D2
350
68
  0
DICTIONARY
  5
2A
102
{ACAD_REACTORS
330
C
102
}
330
C
100
AcDbDictionary
281
     1
  3
2dWireframe
350
2F
  3
Basic
350
32
  3
Brighten
350
36
  3
ColorChange
350
3A
  3
Conceptual
350
34
  3
Dim
350
35
  3
EdgeColorOff
350
3D
  3
Facepattern
350
39
  3
Flat
350
2B
  3
FlatWithEdges
350
2C
  3
Gouraud
350
2D
  3
GouraudWithEdges
350
2E
  3
Hidden
350
31
  3
JitterOff
350
3B
  3
Linepattern
350
38
  3
OverhangOff
350
3C
  3
Realistic
350
33
  3
Shaded
350
42
  3
Shaded with edges
350
41
  3
Shades of Gray
350
3E
  3
Sketchy
350
3F
  3
Thicken
350
37
  3
Wireframe
350
30
  3
X-Ray
350
40
  0
DICTIONARY
  5
3D7
102
{ACAD_REACTORS
330
C
102
}
330
C
100
AcDbDictionary
281
     1
  3
CANNOSCALE
350
3E2
  3
DIMASSOC
350
3DC
  3
HIDETEXT
350
3DD
  3
MSLTSCALE
350
3E3
  0
XRECORD
  5
3E1
102
{ACAD_REACTORS
330
3E0
102
}
330
3E0
100
AcDbXrecord
280
     1
102
VTR_0.000_0.000_1.000_1.000_GRIDDISPLAY
 70
     3
102
VTR_0.000_0.000_1.000_1.000_GRIDMAJOR
 70
     5
102
VTR_0.000_0.000_1.000_1.000_DEFAULTLIGHTING
280
     1
102
VTR_0.000_0.000_1.000_1.000_DEFAULTLIGHTINGTYPE
 70
     1
102
VTR_0.000_0.000_1.000_1.000_BRIGHTNESS
141
0.0
102
VTR_0.000_0.000_1.000_1.000_CONTRAST
142
0.0
  0
XRECORD
  5
3DF
102
{ACAD_REACTORS
330
3DE
102
}
330
3DE
100
AcDbXrecord
280
     1
102
GRIDDISPLAY
 70
     2
102
GRIDMAJOR
 70
     5
102
DEFAULTLIGHTING
280
     1
102
DEFAULTLIGHTINGTYPE
 70
     1
102
BRIGHTNESS
141
0.0
102
CONTRAST
142
0.0
  0
LAYOUT
  5
1E
102
{ACAD_REACTORS
330
1A
102
}
330
1A
100
AcDbPlotSettings
  1

  2
none_device
  4

  6

 40
0.0
 41
0.0
 42
0.0
 43
0.0
 44
0.0
 45
0.0
 46
0.0
 47
0.0
 48
0.0
 49
0.0
140
0.0
141
0.0
142
1.0
143
1.0
 70
   688
 72
     0
 73
     0
 74
     5
  7

 75
    16
147
1.0
148
0.0
149
0.0
100
AcDbLayout
  1
Layout1
 70
     0
 71
     1
 10
0.0
 20
0.0
 11
12.0
 21
9.0
 12
0.0
 22
0.0
 32
0.0
 14
1.000000000000000E+20
 24
1.000000000000000E+20
 34
1.000000000000000E+20
 15
-1.000000000000000E+20
 25
-1.000000000000000E+20
 35
-1.000000000000000E+20
146
0.0
 13
0.0
 23
0.0
 33
0.0
 16
1.0
 26
0.0
 36
0.0
 17
0.0
 27
1.0
 37
0.0
 76
     0
330
1B
331
B8
  0
LAYOUT
  5
26
102
{ACAD_REACTORS
330
1A
102
}
330
1A
100
AcDbPlotSettings
  1

  2
none_device
  4

  6

 40
0.0
 41
0.0
 42
0.0
 43
0.0
 44
0.0
 45
0.0
 46
0.0
 47
0.0
 48
0.0
 49
0.0
140
0.0
141
0.0
142
1.0
143
1.0
 70
   688
 72
     0
 73
     0
 74
     5
  7

 75
    16
147
1.0
148
0.0
149
0.0
100
AcDbLayout
  1
Layout2
 70
     1
 71
     2
 10
0.0
 20
0.0
 11
0.0
 21
0.0
 12
0.0
 22
0.0
 32
0.0
 14
0.0
 24
0.0
 34
0.0
 15
0.0
 25
0.0
 35
0.0
146
0.0
 13
0.0
 23
0.0
 33
0.0
 16
1.0
 26
0.0
 36
0.0
 17
0.0
 27
1.0
 37
0.0
 76
     0
330
23
  0
LAYOUT
  5
22
102
{ACAD_REACTORS
330
1A
102
}
330
1A
100
AcDbPlotSettings
  1

  2
none_device
  4
Letter_(8.50_x_11.00_Inches)
  6

 40
6.35
 41
6.35
 42
6.35000508
 43
6.35000508
 44
215.9
 45
279.4
 46
0.0
 47
0.0
 48
0.0
 49
0.0
140
0.0
141
0.0
142
1.0
143
1.0
 70
  1712
 72
     0
 73
     0
 74
     0
  7

 75
     0
147
1.0
148
0.0
149
0.0
100
AcDbLayout
  1
Model
 70
     1
 71
     0
 10
-420.0
 20
-297.0
 11
420.0
 21
297.0
 12
0.0
 22
0.0
 32
0.0
 14
-1182.0
 24
-810.7684599628672
 34
0.0
 15
1182.0
 25
810.7684599628672
 35
0.0
146
0.0
 13
0.0
 23
0.0
 33
0.0
 16
1.0
 26
0.0
 36
0.0
 17
0.0
 27
1.0
 37
0.0
 76
     0
330
1F
331
29
  0
MATERIAL
  5
45
102
{ACAD_REACTORS
330
43
102
}
102
{ACAD_XDICTIONARY
360
416
102
}
330
43
100
AcDbMaterial
  1
ByBlock
  0
MATERIAL
  5
44
102
{ACAD_REACTORS
330
43
102
}
102
{ACAD_XDICTIONARY
360
414
102
}
330
43
100
AcDbMaterial
  1
ByLayer
  0
MATERIAL
  5
46
102
{ACAD_REACTORS
330
43
102
}
102
{ACAD_XDICTIONARY
360
418
102
}
330
43
100
AcDbMaterial
  1
Global
  0
MLINESTYLE
  5
18
102
{ACAD_REACTORS
330
17
102
}
330
17
100
AcDbMlineStyle
  2
Standard
 70
     0
  3

 62
   256
 51
90.0
 52
90.0
 71
     2
 49
0.5
 62
   256
  6
BYLAYER
 49
-0.5
 62
   256
  6
BYLAYER
  0
ACDBPLACEHOLDER
  5
F
102
{ACAD_REACTORS
330
E
102
}
330
E
  0
SCALE
  5
48
102
{ACAD_REACTORS
330
47
102
}
330
47
100
AcDbScale
 70
     0
300
1:1
140
1.0
141
1.0
290
     1
  0
SCALE
  5
49
102
{ACAD_REACTORS
330
47
102
}
330
47
100
AcDbScale
 70
     0
300
1:2
140
1.0
141
2.0
290
     0
  0
SCALE
  5
4A
102
{ACAD_REACTORS
330
47
102
}
330
47
100
AcDbScale
 70
     0
300
1:4
140
1.0
141
4.0
290
     0
  0
SCALE
  5
4B
102
{ACAD_REACTORS
330
47
102
}
330
47
100
AcDbScale
 70
     0
300
1:5
140
1.0
141
5.0
290
     0
  0
SCALE
  5
4C
102
{ACAD_REACTORS
330
47
102
}
330
47
100
AcDbScale
 70
     0
300
1:8
140
1.0
141
8.0
290
     0
  0
SCALE
  5
4D
102
{ACAD_REACTORS
330
47
102
}
330
47
100
AcDbScale
 70
     0
300
1:10
140
1.0
141
10.0
290
     0
  0
SCALE
  5
4E
102
{ACAD_REACTORS
330
47
102
}
330
47
100
AcDbScale
 70
     0
300
1:16
140
1.0
141
16.0
290
     0
  0
SCALE
  5
4F
102
{ACAD_REACTORS
330
47
102
}
330
47
100
AcDbScale
 70
     0
300
1:20
140
1.0
141
20.0
290
     0
  0
SCALE
  5
50
102
{ACAD_REACTORS
330
47
102
}
330
47
100
AcDbScale
 70
     0
300
1:30
140
1.0
141
30.0
290
     0
  0
SCALE
  5
51
102
{ACAD_REACTORS
330
47
102
}
330
47
100
AcDbScale
 70
     0
300
1:40
140
1.0
141
40.0
290
     0
  0
SCALE
  5
52
102
{ACAD_REACTORS
330
47
102
}
330
47
100
AcDbScale
 70
     0
300
1:50
140
1.0
141
50.0
290
     0
  0
SCALE
  5
53
102
{ACAD_REACTORS
330
47
102
}
330
47
100
AcDbScale
 70
     0
300
1:100
140
1.0
141
100.0
290
     0
  0
SCALE
  5
54
102
{ACAD_REACTORS
330
47
102
}
330
47
100
AcDbScale
 70
     0
300
2:1
140
2.0
141
1.0
290
     0
  0
SCALE
  5
55
102
{ACAD_REACTORS
330
47
102
}
330
47
100
AcDbScale
 70
     0
300
4:1
140
4.0
141
1.0
290
     0
  0
SCALE
  5
56
102
{ACAD_REACTORS
330
47
102
}
330
47
100
AcDbScale
 70
     0
300
8:1
140
8.0
141
1.0
290
     0
  0
SCALE
  5
57
102
{ACAD_REACTORS
330
47
102
}
330
47
100
AcDbScale
 70
     0
300
10:1
140
10.0
141
1.0
290
     0
  0
SCALE
  5
58
102
{ACAD_REACTORS
330
47
102
}
330
47
100
AcDbScale
 70
     0
300
100:1
140
100.0
141
1.0
290
     0
  0
SCALE
  5
59
102
{ACAD_REACTORS
330
47
102
}
330
47
100
AcDbScale
 70
     0
300
1/128" = 1'-0"
140
0.0078125
141
12.0
290
     0
  0
SCALE
  5
5A
102
{ACAD_REACTORS
330
47
102
}
330
47
100
AcDbScale
 70
     0
300
1/64" = 1'-0"
140
0.015625
141
12.0
290
     0
  0
SCALE
  5
5B
102
{ACAD_REACTORS
330
47
102
}
330
47
100
AcDbScale
 70
     0
300
1/32" = 1'-0"
140
0.03125
141
12.0
290
     0
  0
SCALE
  5
5C
102
{ACAD_REACTORS
330
47
102
}
330
47
100
AcDbScale
 70
     0
300
1/16" = 1'-0"
140
0.0625
141
12.0
290
     0
  0
SCALE
  5
5D
102
{ACAD_REACTORS
330
47
102
}
330
47
100
AcDbScale
 70
     0
300
3/32" = 1'-0"
140
0.09375
141
12.0
290
     0
  0
SCALE
  5
5E
102
{ACAD_REACTORS
330
47
102
}
330
47
100
AcDbScale
 70
     0
300
1/8" = 1'-0"
140
0.125
141
12.0
290
     0
  0
SCALE
  5
5F
102
{ACAD_REACTORS
330
47
102
}
330
47
100
AcDbScale
 70
     0
300
3/16" = 1'-0"
140
0.1875
141
12.0
290
     0
  0
SCALE
  5
60
102
{ACAD_REACTORS
330
47
102
}
330
47
100
AcDbScale
 70
     0
300
1/4" = 1'-0"
140
0.25
141
12.0
290
     0
  0
SCALE
  5
61
102
{ACAD_REACTORS
330
47
102
}
330
47
100
AcDbScale
 70
     0
300
3/8" = 1'-0"
140
0.375
141
12.0
290
     0
  0
SCALE
  5
62
102
{ACAD_REACTORS
330
47
102
}
330
47
100
AcDbScale
 70
     0
300
1/2" = 1'-0"
140
0.5
141
12.0
290
     0
  0
SCALE
  5
63
102
{ACAD_REACTORS
330
47
102
}
330
47
100
AcDbScale
 70
     0
300
3/4" = 1'-0"
140
0.75
141
12.0
290
     0
  0
SCALE
  5
64
102
{ACAD_REACTORS
330
47
102
}
330
47
100
AcDbScale
 70
     0
300
1" = 1'-0"
140
1.0
141
12.0
290
     0
  0
SCALE
  5
65
102
{ACAD_REACTORS
330
47
102
}
330
47
100
AcDbScale
 70
     0
300
1-1/2" = 1'-0"
140
1.5
141
12.0
290
     0
  0
SCALE
  5
66
102
{ACAD_REACTORS
330
47
102
}
330
47
100
AcDbScale
 70
     0
300
3" = 1'-0"
140
3.0
141
12.0
290
     0
  0
SCALE
  5
67
102
{ACAD_REACTORS
330
47
102
}
330
47
100
AcDbScale
 70
     0
300
6" = 1'-0"
140
6.0
141
12.0
290
     0
  0
SCALE
  5
68
102
{ACAD_REACTORS
330
47
102
}
330
47
100
AcDbScale
 70
     0
300
1'-0" = 1'-0"
140
12.0
141
12.0
290
     0
  0
VISUALSTYLE
  5
2F
102
{ACAD_REACTORS
330
2A
102
}
102
{ACAD_XDICTIONARY
360
3EC
102
}
330
2A
100
AcDbVisualStyle
  2
2dWireframe
 70
     4
 71
     0
 72
     2
 73
     0
 90
        0
 40
0.6
 41
30.0
 62
     5
 63
     7
 74
     1
 91
        4
 64
     7
 65
   257
 75
     1
175
     1
 42
1.0
 92
        0
 66
   257
 43
1.0
 76
     1
 77
     6
 78
     2
 67
     7
 79
     5
170
     0
171
     0
290
     0
174
     0
 93
        1
 44
0.0
173
     0
291
     0
 45
0.0
1001
ACAD
1000
AcDbSavedByObjectVersion
1070
     0
  0
VISUALSTYLE
  5
32
102
{ACAD_REACTORS
330
2A
102
}
102
{ACAD_XDICTIONARY
360
3F2
102
}
330
2A
100
AcDbVisualStyle
  2
Basic
 70
     7
 71
     1
 72
     0
 73
     1
 90
        0
 40
0.6
 41
30.0
 62
     5
 63
     7
 74
     0
 91
        4
 64
     7
 65
   257
 75
     1
175
     1
 42
1.0
 92
        8
 66
     7
 43
1.0
 76
     1
 77
     6
 78
     2
 67
     7
 79
     5
170
     0
171
     0
290
     0
174
     0
 93
        1
 44
0.0
173
     0
291
     1
 45
0.0
1001
ACAD
1000
AcDbSavedByObjectVersion
1070
     0
  0
VISUALSTYLE
  5
36
102
{ACAD_REACTORS
330
2A
102
}
102
{ACAD_XDICTIONARY
360
3FA
102
}
330
2A
100
AcDbVisualStyle
  2
Brighten
 70
    12
 71
     2
 72
     2
 73
     0
 90
        0
 40
0.6
 41
30.0
 62
     5
 63
     7
 74
     1
 91
        4
 64
     7
 65
   257
 75
     1
175
     1
 42
1.0
 92
        8
 66
     7
 43
1.0
 76
     1
 77
     6
 78
     2
 67
     7
 79
     5
170
     0
171
     0
290
     0
174
     0
 93
        1
 44
50.0
173
     0
291
     1
 45
0.0
1001
ACAD
1000
AcDbSavedByObjectVersion
1070
     0
  0
VISUALSTYLE
  5
3A
102
{ACAD_REACTORS
330
2A
102
}
102
{ACAD_XDICTIONARY
360
402
102
}
330
2A
100
AcDbVisualStyle
  2
ColorChange
 70
    16
 71
     2
 72
     2
 73
     3
 90
        0
 40
0.6
 41
30.0
 62
     5
 63
     8
 74
     1
 91
        4
 64
     7
 65
   257
 75
     1
175
     1
 42
1.0
 92
        8
 66
     8
 43
1.0
 76
     1
 77
     6
 78
     2
 67
     7
 79
     5
170
     0
171
     0
290
     0
174
     0
 93
        1
 44
0.0
173
     0
291
     1
 45
0.0
1001
ACAD
1000
AcDbSavedByObjectVersion
1070
     0
  0
VISUALSTYLE
  5
34
102
{ACAD_REACTORS
330
2A
102
}
102
{ACAD_XDICTIONARY
360
3F6
102
}
330
2A
100
AcDbVisualStyle
  2
Conceptual
 70
     9
 71
     3
 72
     2
 73
     0
 90
        0
 40
0.6
 41
30.0
 62
     5
 63
     7
 74
     2
 91
        2
 64
     7
 65
   257
 75
     1
175
     1
 42
179.0
 92
        8
 66
     7
 43
1.0
 76
     1
 77
     6
 78
     2
 67
     7
 79
     3
170
     0
171
     0
290
     0
174
     0
 93
        1
 44
0.0
173
     0
291
     0
 45
0.0
1001
ACAD
1000
AcDbSavedByObjectVersion
1070
     0
  0
VISUALSTYLE
  5
35
102
{ACAD_REACTORS
330
2A
102
}
102
{ACAD_XDICTIONARY
360
3F8
102
}
330
2A
100
AcDbVisualStyle
  2
Dim
 70
    11
 71
     2
 72
     2
 73
     0
 90
        0
 40
0.6
 41
30.0
 62
     5
 63
     7
 74
     1
 91
        4
 64
     7
 65
   257
 75
     1
175
     1
 42
1.0
 92
        8
 66
     7
 43
1.0
 76
     1
 77
     6
 78
     2
 67
     7
 79
     5
170
     0
171
     0
290
     0
174
     0
 93
        1
 44
-50.0
173
     0
291
     1
 45
0.0
1001
ACAD
1000
AcDbSavedByObjectVersion
1070
     0
  0
VISUALSTYLE
  5
3D
102
{ACAD_REACTORS
330
2A
102
}
102
{ACAD_XDICTIONARY
360
408
102
}
330
2A
100
AcDbVisualStyle
  2
EdgeColorOff
 70
    22
 71
     2
 72
     2
 73
     0
 90
        0
 40
0.6
 41
30.0
 62
     5
 63
     7
 74
     1
 91
        4
 64
     7
 65
   257
 75
     1
175
     1
 42
1.0
 92
        8
 66
     7
 43
1.0
 76
     1
 77
     6
 78
     2
 67
     7
 79
     5
170
     0
171
     0
290
     0
174
     0
 93
        1
 44
0.0
173
     0
291
     1
 45
0.0
1001
ACAD
1000
AcDbSavedByObjectVersion
1070
     0
  0
VISUALSTYLE
  5
39
102
{ACAD_REACTORS
330
2A
102
}
102
{ACAD_XDICTIONARY
360
400
102
}
330
2A
100
AcDbVisualStyle
  2
Facepattern
 70
    15
 71
     2
 72
     2
 73
     0
 90
        0
 40
0.6
 41
30.0
 62
     5
 63
     7
 74
     1
 91
        4
 64
     7
 65
   257
 75
     1
175
     1
 42
1.0
 92
        8
 66
     7
 43
1.0
 76
     1
 77
     6
 78
     2
 67
     7
 79
     5
170
     0
171
     0
290
     0
174
     0
 93
        1
 44
0.0
173
     0
291
     1
 45
0.0
1001
ACAD
1000
AcDbSavedByObjectVersion
1070
     0
  0
VISUALSTYLE
  5
2B
102
{ACAD_REACTORS
330
2A
102
}
102
{ACAD_XDICTIONARY
360
3E4
102
}
330
2A
100
AcDbVisualStyle
  2
Flat
 70
     0
 71
     2
 72
     1
 73
     1
 90
        2
 40
0.6
 41
30.0
 62
     5
 63
     7
 74
     0
 91
        0
 64
     7
 65
   257
 75
     1
175
     1
 42
1.0
 92
        8
 66
     7
 43
1.0
 76
     1
 77
     6
 78
     2
 67
     7
 79
     5
170
     0
171
     0
290
     0
174
     0
 93
       13
 44
0.0
173
     0
291
     1
 45
0.0
1001
ACAD
1000
AcDbSavedByObjectVersion
1070
     0
  0
VISUALSTYLE
  5
2C
102
{ACAD_REACTORS
330
2A
102
}
102
{ACAD_XDICTIONARY
360
3E6
102
}
330
2A
100
AcDbVisualStyle
  2
FlatWithEdges
 70
     1
 71
     2
 72
     1
 73
     1
 90
        2
 40
0.6
 41
30.0
 62
     5
 63
     7
 74
     1
 91
        0
 64
     7
 65
   257
 75
     1
175
     1
 42
1.0
 92
        0
 66
   257
 43
1.0
 76
     1
 77
     6
 78
     2
 67
     7
 79
     5
170
     0
171
     0
290
     0
174
     0
 93
       13
 44
0.0
173
     0
291
     1
 45
0.0
1001
ACAD
1000
AcDbSavedByObjectVersion
1070
     0
  0
VISUALSTYLE
  5
2D
102
{ACAD_REACTORS
330
2A
102
}
102
{ACAD_XDICTIONARY
360
3E8
102
}
330
2A
100
AcDbVisualStyle
  2
Gouraud
 70
     2
 71
     2
 72
     2
 73
     1
 90
        2
 40
0.6
 41
30.0
 62
     5
 63
     7
 74
     0
 91
        0
 64
     7
 65
   257
 75
     1
175
     1
 42
1.0
 92
        0
 66
     7
 43
1.0
 76
     1
 77
     6
 78
     2
 67
     7
 79
     5
170
     0
171
     0
290
     0
174
     0
 93
       13
 44
0.0
173
     0
291
     1
 45
0.0
1001
ACAD
1000
AcDbSavedByObjectVersion
1070
     0
  0
VISUALSTYLE
  5
2E
102
{ACAD_REACTORS
330
2A
102
}
102
{ACAD_XDICTIONARY
360
3EA
102
}
330
2A
100
AcDbVisualStyle
  2
GouraudWithEdges
 70
     3
 71
     2
 72
     2
 73
     1
 90
        2
 40
0.6
 41
30.0
 62
     5
 63
     7
 74
     1
 91
        0
 64
     7
 65
   257
 75
     1
175
     1
 42
1.0
 92
        0
 66
   257
 43
1.0
 76
     1
 77
     6
 78
     2
 67
     7
 79
     5
170
     0
171
     0
290
     0
174
     0
 93
       13
 44
0.0
173
     0
291
     1
 45
0.0
1001
ACAD
1000
AcDbSavedByObjectVersion
1070
     0
  0
VISUALSTYLE
  5
31
102
{ACAD_REACTORS
330
2A
102
}
102
{ACAD_XDICTIONARY
360
3F0
102
}
330
2A
100
AcDbVisualStyle
  2
Hidden
 70
     6
 71
     1
 72
     2
 73
     2
 90
        0
 40
0.6
 41
30.0
 62
     5
 63
     7
 74
     2
 91
        2
 64
     7
 65
   257
 75
     2
175
     1
 42
40.0
 92
        0
 66
   257
 43
1.0
 76
     1
 77
     6
 78
     2
 67
     7
 79
     3
170
     0
171
     0
290
     0
174
     0
 93
        1
 44
0.0
173
     0
291
     0
 45
0.0
1001
ACAD
1000
AcDbSavedByObjectVersion
1070
     0
  0
VISUALSTYLE
  5
3B
102
{ACAD_REACTORS
330
2A
102
}
102
{ACAD_XDICTIONARY
360
404
102
}
330
2A
100
AcDbVisualStyle
  2
JitterOff
 70
    20
 71
     2
 72
     2
 73
     0
 90
        0
 40
0.6
 41
30.0
 62
     5
 63
     7
 74
     1
 91
        4
 64
     7
 65
   257
 75
     1
175
     1
 42
1.0
 92
       10
 66
     7
 43
1.0
 76
     1
 77
     6
 78
     2
 67
     7
 79
     5
170
     0
171
     0
290
     0
174
     0
 93
        1
 44
0.0
173
     0
291
     1
 45
0.0
1001
ACAD
1000
AcDbSavedByObjectVersion
1070
     0
  0
VISUALSTYLE
  5
38
102
{ACAD_REACTORS
330
2A
102
}
102
{ACAD_XDICTIONARY
360
3FE
102
}
330
2A
100
AcDbVisualStyle
  2
Linepattern
 70
    14
 71
     2
 72
     2
 73
     0
 90
        0
 40
0.6
 41
30.0
 62
     5
 63
     7
 74
     1
 91
        4
 64
     7
 65
   257
 75
     7
175
     7
 42
1.0
 92
        8
 66
     7
 43
1.0
 76
     1
 77
     6
 78
     2
 67
     7
 79
     5
170
     0
171
     0
290
     0
174
     0
 93
        1
 44
0.0
173
     0
291
     1
 45
0.0
1001
ACAD
1000
AcDbSavedByObjectVersion
1070
     0
  0
VISUALSTYLE
  5
3C
102
{ACAD_REACTORS
330
2A
102
}
102
{ACAD_XDICTIONARY
360
406
102
}
330
2A
100
AcDbVisualStyle
  2
OverhangOff
 70
    21
 71
     2
 72
     2
 73
     0
 90
        0
 40
0.6
 41
30.0
 62
     5
 63
     7
 74
     1
 91
        4
 64
     7
 65
   257
 75
     1
175
     1
 42
1.0
 92
        9
 66
     7
 43
1.0
 76
     1
 77
     6
 78
     2
 67
     7
 79
     5
170
     0
171
     0
290
     0
174
     0
 93
        1
 44
0.0
173
     0
291
     1
 45
0.0
1001
ACAD
1000
AcDbSavedByObjectVersion
1070
     0
  0
VISUALSTYLE
  5
33
102
{ACAD_REACTORS
330
2A
102
}
102
{ACAD_XDICTIONARY
360
3F4
102
}
330
2A
100
AcDbVisualStyle
  2
Realistic
 70
     8
 71
     2
 72
     3
 73
     0
 90
        2
 40
0.6
 41
30.0
 62
     5
 63
     7
 74
     0
 91
        0
 64
     7
 65
   257
 75
     1
175
     1
 42
1.0
 92
        8
 66
   257
 43
1.0
 76
     1
 77
     6
 78
     2
 67
     7
 79
     3
170
     0
171
     0
290
     0
174
     0
 93
       13
 44
0.0
173
     0
291
     0
 45
0.0
1001
ACAD
1000
AcDbSavedByObjectVersion
1070
     0
  0
VISUALSTYLE
  5
42
102
{ACAD_REACTORS
330
2A
102
}
102
{ACAD_XDICTIONARY
360
412
102
}
330
2A
100
AcDbVisualStyle
  2
Shaded
 70
    27
 71
     2
 72
     2
 73
     1
 90
        2
 40
0.6
 41
30.0
 62
     5
 63
     7
 74
     0
 91
        4
 64
     7
 65
   257
 75
     1
175
     1
 42
1.0
 92
        8
 66
   257
 43
1.0
 76
     1
 77
     6
 78
     2
 67
     8
 79
     3
170
     0
171
     0
290
     0
174
     0
 93
        5
 44
0.0
173
     0
291
     0
 45
0.0
1001
ACAD
1000
AcDbSavedByObjectVersion
1070
     0
  0
VISUALSTYLE
  5
41
102
{ACAD_REACTORS
330
2A
102
}
102
{ACAD_XDICTIONARY
360
410
102
}
330
2A
100
AcDbVisualStyle
  2
Shaded with edges
 70
    26
 71
     2
 72
     2
 73
     1
 90
        2
 40
0.6
 41
30.0
 62
     5
 63
     7
 74
     1
 91
       10
 64
     7
 65
   257
 75
     2
175
     1
 42
1.0
 92
        8
 66
   257
 43
1.0
 76
     1
 77
     6
 78
     2
 67
     7
 79
     3
170
     0
171
     0
290
     0
174
     0
 93
        5
 44
0.0
173
     0
291
     0
 45
0.0
1001
ACAD
1000
AcDbSavedByObjectVersion
1070
     0
  0
VISUALSTYLE
  5
3E
102
{ACAD_REACTORS
330
2A
102
}
102
{ACAD_XDICTIONARY
360
40A
102
}
330
2A
100
AcDbVisualStyle
  2
Shades of Gray
 70
    23
 71
     2
 72
     2
 73
     3
 90
        0
 40
0.6
 41
30.0
 62
     5
 63
     7
 74
     2
 91
        2
 64
     7
 65
     7
 75
     1
175
     1
 42
40.0
 92
        8
 66
     7
 43
1.0
 76
     1
 77
     6
 78
     2
 67
     7
 79
     3
170
     0
171
     0
290
     0
174
     0
 93
        1
 44
0.0
173
     0
291
     0
 45
0.0
1001
ACAD
1000
AcDbSavedByObjectVersion
1070
     0
  0
VISUALSTYLE
  5
3F
102
{ACAD_REACTORS
330
2A
102
}
102
{ACAD_XDICTIONARY
360
40C
102
}
330
2A
100
AcDbVisualStyle
  2
Sketchy
 70
    24
 71
     1
 72
     2
 73
     2
 90
        0
 40
0.6
 41
30.0
 62
     5
 63
     7
 74
     2
 91
        2
 64
     7
 65
     7
 75
     1
175
     1
 42
40.0
 92
       11
 66
     7
 43
1.0
 76
     1
 77
     6
 78
     2
 67
     7
 79
     6
170
     0
171
     0
290
     0
174
     0
 93
        1
 44
0.0
173
     0
291
     0
 45
0.0
1001
ACAD
1000
AcDbSavedByObjectVersion
1070
     0
  0
VISUALSTYLE
  5
37
102
{ACAD_REACTORS
330
2A
102
}
102
{ACAD_XDICTIONARY
360
3FC
102
}
330
2A
100
AcDbVisualStyle
  2
Thicken
 70
    13
 71
     2
 72
     2
 73
     0
 90
        0
 40
0.6
 41
30.0
 62
     5
 63
     7
 74
     1
 91
        4
 64
     7
 65
   257
 75
     1
175
     1
 42
1.0
 92
       12
 66
     7
 43
1.0
 76
     1
 77
     6
 78
     2
 67
     7
 79
     5
170
     0
171
     0
290
     0
174
     0
 93
        1
 44
0.0
173
     0
291
     1
 45
0.0
1001
ACAD
1000
AcDbSavedByObjectVersion
1070
     0
  0
VISUALSTYLE
  5
30
102
{ACAD_REACTORS
330
2A
102
}
102
{ACAD_XDICTIONARY
360
3EE
102
}
330
2A
100
AcDbVisualStyle
  2
Wireframe
 70
     5
 71
     0
 72
     2
 73
     0
 90
        0
 40
0.6
 41
30.0
 62
     5
 63
     7
 74
     1
 91
        4
 64
     7
 65
   257
 75
     1
175
     1
 42
1.0
 92
        0
 66
   257
 43
1.0
 76
     1
 77
     6
 78
     2
 67
     7
 79
     3
170
     0
171
     0
290
     0
174
     0
 93
        1
 44
0.0
173
     0
291
     0
 45
0.0
1001
ACAD
1000
AcDbSavedByObjectVersion
1070
     0
  0
VISUALSTYLE
  5
40
102
{ACAD_REACTORS
330
2A
102
}
102
{ACAD_XDICTIONARY
360
40E
102
}
330
2A
100
AcDbVisualStyle
  2
X-Ray
 70
    25
 71
     2
 72
     2
 73
     1
 90
        1
 40
0.5
 41
30.0
 62
     5
 63
     7
 74
     1
 91
        0
 64
     7
 65
   257
 75
     1
175
     1
 42
1.0
 92
        8
 66
     7
 43
1.0
 76
     1
 77
     6
 78
     2
 67
     7
 79
     3
170
     0
171
     0
290
     0
174
     0
 93
       13
 44
0.0
173
     0
291
     0
 45
0.0
1001
ACAD
1000
AcDbSavedByObjectVersion
1070
     0
  0
DICTIONARYVAR
  5
3E2
102
{ACAD_REACTORS
330
3D7
102
}
330
3D7
100
DictionaryVariables
280
     0
  1
1:1
  0
DICTIONARYVAR
  5
3DC
102
{ACAD_REACTORS
330
3D7
102
}
330
3D7
100
DictionaryVariables
280
     0
  1
2
  0
DICTIONARYVAR
  5
3DD
102
{ACAD_REACTORS
330
3D7
102
}
330
3D7
100
DictionaryVariables
280
     0
  1
1
  0
DICTIONARYVAR
  5
3E3
102
{ACAD_REACTORS
330
3D7
102
}
330
3D7
100
DictionaryVariables
280
     0
  1
1
  0
DICTIONARY
  5
416
330
45
100
AcDbDictionary
280
     1
281
     1
  3
ACAD_XREC_ROUNDTRIP
360
417
  0
DICTIONARY
  5
414
330
44
100
AcDbDictionary
280
     1
281
     1
  3
ACAD_XREC_ROUNDTRIP
360
415
  0
DICTIONARY
  5
418
330
46
100
AcDbDictionary
280
     1
281
     1
  3
ACAD_XREC_ROUNDTRIP
360
419
  0
DICTIONARY
  5
3EC
330
2F
100
AcDbDictionary
280
     1
281
     1
  3
ACAD_XREC_ROUNDTRIP
360
3ED
  0
DICTIONARY
  5
3F2
330
32
100
AcDbDictionary
280
     1
281
     1
  3
ACAD_XREC_ROUNDTRIP
360
3F3
  0
DICTIONARY
  5
3FA
330
36
100
AcDbDictionary
280
     1
281
     1
  3
ACAD_XREC_ROUNDTRIP
360
3FB
  0
DICTIONARY
  5
402
330
3A
100
AcDbDictionary
280
     1
281
     1
  3
ACAD_XREC_ROUNDTRIP
360
403
  0
DICTIONARY
  5
3F6
330
34
100
AcDbDictionary
280
     1
281
     1
  3
ACAD_XREC_ROUNDTRIP
360
3F7
  0
DICTIONARY
  5
3F8
330
35
100
AcDbDictionary
280
     1
281
     1
  3
ACAD_XREC_ROUNDTRIP
360
3F9
  0
DICTIONARY
  5
408
330
3D
100
AcDbDictionary
280
     1
281
     1
  3
ACAD_XREC_ROUNDTRIP
360
409
  0
DICTIONARY
  5
400
330
39
100
AcDbDictionary
280
     1
281
     1
  3
ACAD_XREC_ROUNDTRIP
360
401
  0
DICTIONARY
  5
3E4
330
2B
100
AcDbDictionary
280
     1
281
     1
  3
ACAD_XREC_ROUNDTRIP
360
3E5
  0
DICTIONARY
  5
3E6
330
2C
100
AcDbDictionary
280
     1
281
     1
  3
ACAD_XREC_ROUNDTRIP
360
3E7
  0
DICTIONARY
  5
3E8
330
2D
100
AcDbDictionary
280
     1
281
     1
  3
ACAD_XREC_ROUNDTRIP
360
3E9
  0
DICTIONARY
  5
3EA
330
2E
100
AcDbDictionary
280
     1
281
     1
  3
ACAD_XREC_ROUNDTRIP
360
3EB
  0
DICTIONARY
  5
3F0
330
31
100
AcDbDictionary
280
     1
281
     1
  3
ACAD_XREC_ROUNDTRIP
360
3F1
  0
DICTIONARY
  5
404
330
3B
100
AcDbDictionary
280
     1
281
     1
  3
ACAD_XREC_ROUNDTRIP
360
405
  0
DICTIONARY
  5
3FE
330
38
100
AcDbDictionary
280
     1
281
     1
  3
ACAD_XREC_ROUNDTRIP
360
3FF
  0
DICTIONARY
  5
406
330
3C
100
AcDbDictionary
280
     1
281
     1
  3
ACAD_XREC_ROUNDTRIP
360
407
  0
DICTIONARY
  5
3F4
330
33
100
AcDbDictionary
280
     1
281
     1
  3
ACAD_XREC_ROUNDTRIP
360
3F5
  0
DICTIONARY
  5
412
330
42
100
AcDbDictionary
280
     1
281
     1
  3
ACAD_XREC_ROUNDTRIP
360
413
  0
DICTIONARY
  5
410
330
41
100
AcDbDictionary
280
     1
281
     1
  3
ACAD_XREC_ROUNDTRIP
360
411
  0
DICTIONARY
  5
40A
330
3E
100
AcDbDictionary
280
     1
281
     1
  3
ACAD_XREC_ROUNDTRIP
360
40B
  0
DICTIONARY
  5
40C
330
3F
100
AcDbDictionary
280
     1
281
     1
  3
ACAD_XREC_ROUNDTRIP
360
40D
  0
DICTIONARY
  5
3FC
330
37
100
AcDbDictionary
280
     1
281
     1
  3
ACAD_XREC_ROUNDTRIP
360
3FD
  0
DICTIONARY
  5
3EE
330
30
100
AcDbDictionary
280
     1
281
     1
  3
ACAD_XREC_ROUNDTRIP
360
3EF
  0
DICTIONARY
  5
40E
330
40
100
AcDbDictionary
280
     1
281
     1
  3
ACAD_XREC_ROUNDTRIP
360
40F
  0
XRECORD
  5
417
102
{ACAD_REACTORS
330
416
102
}
330
416
100
AcDbXrecord
280
     1
102
MATERIAL
148
0.0
149
0.0
149
0.0
 93
        0
 94
      127
282
     0
 72
     1
 77
     1
171
     1
175
     1
179
     1
273
     0
  0
XRECORD
  5
415
102
{ACAD_REACTORS
330
414
102
}
330
414
100
AcDbXrecord
280
     1
102
MATERIAL
148
0.0
149
0.0
149
0.0
 93
        0
 94
      127
282
     0
 72
     1
 77
     1
171
     1
175
     1
179
     1
273
     0
  0
XRECORD
  5
419
102
{ACAD_REACTORS
330
418
102
}
330
418
100
AcDbXrecord
280
     1
102
MATERIAL
148
0.0
149
0.0
149
0.0
 93
        0
 94
      127
282
     0
 72
     1
 77
     1
171
     1
175
     1
179
     1
273
     0
  0
XRECORD
  5
3ED
102
{ACAD_REACTORS
330
3EC
102
}
330
3EC
100
AcDbXrecord
280
     1
102
RTVSPropertyOp0
 70
     1
102
RTVSPropertyOp1
 70
     1
102
RTVSPropertyOp2
 70
     1
102
RTVSPropertyOp3
 70
     1
102
RTVSPropertyOp4
 70
     1
102
RTVSPropertyOp5
 70
     1
102
RTVSPropertyOp6
 70
     1
102
RTVSPropertyOp7
 70
     1
102
RTVSPropertyOp8
 70
     1
102
RTVSPropertyOp9
 70
     1
102
RTVSPropertyOp10
 70
     1
102
RTVSPropertyOp11
 70
     1
102
RTVSPropertyOp12
 70
     1
102
RTVSPropertyOp13
 70
     1
102
RTVSPropertyOp14
 70
     1
102
RTVSPropertyOp15
 70
     1
102
RTVSPropertyOp16
 70
     1
102
RTVSPropertyOp17
 70
     1
102
RTVSPropertyOp18
 70
     1
102
RTVSPropertyOp19
 70
     1
102
RTVSPropertyOp20
 70
     1
102
RTVSPropertyOp21
 70
     1
102
RTVSPropertyOp22
 70
     1
102
RTVSPropertyOp23
 70
     1
102
RTVSPropertyOp24
 70
     1
102
RTVSPropertyOp25
 70
     1
102
RTVSPropertyOp26
 70
     1
102
RTVSPropertyOp27
 70
     1
102
RTVSPropertyOp28
 70
     1
102
RTVSPropertyOp29
 70
     1
102
RTVSPropertyOp30
 70
     1
102
RTVSPropertyOp31
 70
     1
102
RTVSPropertyOp32
 70
     1
102
RTVSPropertyOp33
 70
     1
102
RTVSPropertyOp34
 70
     1
102
RTVSPropertyOp35
 70
     1
102
RTVSPropertyOp36
 70
     1
102
RTVSPropertyOp37
 70
     1
102
RTVSPropertyOp38
 70
     1
102
RTVSPropertyOp39
 70
     1
102
RTVSPropertyOp40
 70
     1
102
RTVSPropertyOp41
 70
     1
102
RTVSPropertyOp42
 70
     1
102
RTVSPropertyOp43
 70
     1
102
RTVSPropertyOp44
 70
     1
102
RTVSPropertyOp45
 70
     1
102
RTVSPropertyOp46
 70
     1
102
RTVSPropertyOp47
 70
     1
102
RTVSPropertyOp48
 70
     1
102
RTVSPropertyOp49
 70
     1
102
RTVSPropertyOp50
 70
     1
102
RTVSPropertyOp51
 70
     0
102
RTVSPropertyOp52
 70
     0
102
RTVSPropertyOp53
 70
     1
102
RTVSPropertyOp54
 70
     1
102
RTVSPropertyOp55
 70
     1
102
RTVSPropertyOp56
 70
     1
102
RTVSPropertyOp57
 70
     1
102
RTVSPost2010Prop28
280
     1
102
RTVSPost2010PropOp28
 70
     1
102
RTVSPost2010Prop29
280
     1
102
RTVSPost2010PropOp29
 70
     1
102
RTVSPost2010Prop30
280
     0
102
RTVSPost2010PropOp30
 70
     1
102
RTVSPost2010Prop31
280
     0
102
RTVSPost2010PropOp31
 70
     1
102
RTVSPost2010Prop32
280
     0
102
RTVSPost2010PropOp32
 70
     1
102
RTVSPost2010Prop33
280
     0
102
RTVSPost2010PropOp33
 70
     1
102
RTVSPost2010Prop34
280
     0
102
RTVSPost2010PropOp34
 70
     1
102
RTVSPost2010Prop35
280
     0
102
RTVSPost2010PropOp35
 70
     1
102
RTVSPost2010Prop36
280
     0
102
RTVSPost2010PropOp36
 70
     1
102
RTVSPost2010Prop37
 90
       50
102
RTVSPost2010PropOp37
 70
     1
102
RTVSPost2010Prop38
140
0.0
102
RTVSPost2010PropOp38
 70
     1
102
RTVSPost2010Prop39
140
1.0
102
RTVSPost2010PropOp39
 70
     1
102
RTVSPost2010Prop40
 90
        0
102
RTVSPost2010PropOp40
 70
     1
102
RTVSPost2010Prop41ColorIndex
 90
       18
102
RTVSPost2010Prop41ColorRGB
 90
        0
102
RTVSPost2010PropOp41
 70
     1
102
RTVSPost2010Prop42
 90
       50
102
RTVSPost2010PropOp42
 70
     1
102
RTVSPost2010Prop43
 90
        3
102
RTVSPost2010PropOp43
 70
     1
102
RTVSPost2010Prop44ColorIndex
 90
        5
102
RTVSPost2010Prop44ColorRGB
 90
      255
102
RTVSPost2010PropOp44
 70
     1
102
RTVSPost2010Prop45
280
     0
102
RTVSPost2010PropOp45
 70
     1
102
RTVSPost2010Prop46
 90
       50
102
RTVSPost2010PropOp46
 70
     1
102
RTVSPost2010Prop47
 90
       50
102
RTVSPost2010PropOp47
 70
     1
102
RTVSPost2010Prop48
 90
       50
102
RTVSPost2010PropOp48
 70
     1
102
RTVSPost2010Prop49
280
     0
102
RTVSPost2010PropOp49
 70
     1
102
RTVSPost2010Prop50
 90
       50
102
RTVSPost2010PropOp50
 70
     1
102
RTVSPost2010Prop51ColorIndex
 90
      256
102
RTVSPost2010Prop51ColorRGB
 90
-16777216
102
RTVSPost2010PropOp51
 70
     0
102
RTVSPost2010Prop52
140
1.0
102
RTVSPost2010PropOp52
 70
     0
102
RTVSPost2010Prop53
 90
        2
102
RTVSPost2010PropOp53
 70
     1
102
RTVSPost2010Prop54
  1
strokes_ogs.tif
102
RTVSPost2010PropOp54
 70
     1
102
RTVSPost2010Prop55
280
     0
102
RTVSPost2010PropOp55
 70
     1
102
RTVSPost2010Prop56
140
1.0
102
RTVSPost2010PropOp56
 70
     1
102
RTVSPost2010Prop57
140
1.0
102
RTVSPost2010PropOp57
 70
     1
  0
XRECORD
  5
3F3
102
{ACAD_REACTORS
330
3F2
102
}
330
3F2
100
AcDbXrecord
280
     1
102
RTVSPropertyOp0
 70
     1
102
RTVSPropertyOp1
 70
     1
102
RTVSPropertyOp2
 70
     1
102
RTVSPropertyOp3
 70
     1
102
RTVSPropertyOp4
 70
     1
102
RTVSPropertyOp5
 70
     1
102
RTVSPropertyOp6
 70
     1
102
RTVSPropertyOp7
 70
     1
102
RTVSPropertyOp8
 70
     1
102
RTVSPropertyOp9
 70
     1
102
RTVSPropertyOp10
 70
     1
102
RTVSPropertyOp11
 70
     1
102
RTVSPropertyOp12
 70
     1
102
RTVSPropertyOp13
 70
     1
102
RTVSPropertyOp14
 70
     1
102
RTVSPropertyOp15
 70
     1
102
RTVSPropertyOp16
 70
     1
102
RTVSPropertyOp17
 70
     1
102
RTVSPropertyOp18
 70
     1
102
RTVSPropertyOp19
 70
     1
102
RTVSPropertyOp20
 70
     1
102
RTVSPropertyOp21
 70
     1
102
RTVSPropertyOp22
 70
     1
102
RTVSPropertyOp23
 70
     1
102
RTVSPropertyOp24
 70
     1
102
RTVSPropertyOp25
 70
     1
102
RTVSPropertyOp26
 70
     1
102
RTVSPropertyOp27
 70
     1
102
RTVSPropertyOp28
 70
     1
102
RTVSPropertyOp29
 70
     1
102
RTVSPropertyOp30
 70
     1
102
RTVSPropertyOp31
 70
     1
102
RTVSPropertyOp32
 70
     1
102
RTVSPropertyOp33
 70
     1
102
RTVSPropertyOp34
 70
     1
102
RTVSPropertyOp35
 70
     1
102
RTVSPropertyOp36
 70
     1
102
RTVSPropertyOp37
 70
     1
102
RTVSPropertyOp38
 70
     1
102
RTVSPropertyOp39
 70
     1
102
RTVSPropertyOp40
 70
     1
102
RTVSPropertyOp41
 70
     1
102
RTVSPropertyOp42
 70
     1
102
RTVSPropertyOp43
 70
     1
102
RTVSPropertyOp44
 70
     1
102
RTVSPropertyOp45
 70
     1
102
RTVSPropertyOp46
 70
     1
102
RTVSPropertyOp47
 70
     1
102
RTVSPropertyOp48
 70
     1
102
RTVSPropertyOp49
 70
     1
102
RTVSPropertyOp50
 70
     1
102
RTVSPropertyOp51
 70
     0
102
RTVSPropertyOp52
 70
     0
102
RTVSPropertyOp53
 70
     1
102
RTVSPropertyOp54
 70
     1
102
RTVSPropertyOp55
 70
     1
102
RTVSPropertyOp56
 70
     1
102
RTVSPropertyOp57
 70
     1
102
RTVSPost2010Prop28
280
     0
102
RTVSPost2010PropOp28
 70
     1
102
RTVSPost2010Prop29
280
     1
102
RTVSPost2010PropOp29
 70
     1
102
RTVSPost2010Prop30
280
     1
102
RTVSPost2010PropOp30
 70
     1
102
RTVSPost2010Prop31
280
     0
102
RTVSPost2010PropOp31
 70
     1
102
RTVSPost2010Prop32
280
     0
102
RTVSPost2010PropOp32
 70
     1
102
RTVSPost2010Prop33
280
     0
102
RTVSPost2010PropOp33
 70
     1
102
RTVSPost2010Prop34
280
     0
102
RTVSPost2010PropOp34
 70
     1
102
RTVSPost2010Prop35
280
     0
102
RTVSPost2010PropOp35
 70
     1
102
RTVSPost2010Prop36
280
     0
102
RTVSPost2010PropOp36
 70
     1
102
RTVSPost2010Prop37
 90
       50
102
RTVSPost2010PropOp37
 70
     1
102
RTVSPost2010Prop38
140
0.0
102
RTVSPost2010PropOp38
 70
     1
102
RTVSPost2010Prop39
140
1.0
102
RTVSPost2010PropOp39
 70
     1
102
RTVSPost2010Prop40
 90
        0
102
RTVSPost2010PropOp40
 70
     1
102
RTVSPost2010Prop41ColorIndex
 90
       18
102
RTVSPost2010Prop41ColorRGB
 90
        0
102
RTVSPost2010PropOp41
 70
     1
102
RTVSPost2010Prop42
 90
       50
102
RTVSPost2010PropOp42
 70
     1
102
RTVSPost2010Prop43
 90
        3
102
RTVSPost2010PropOp43
 70
     1
102
RTVSPost2010Prop44ColorIndex
 90
        5
102
RTVSPost2010Prop44ColorRGB
 90
      255
102
RTVSPost2010PropOp44
 70
     1
102
RTVSPost2010Prop45
280
     0
102
RTVSPost2010PropOp45
 70
     1
102
RTVSPost2010Prop46
 90
       50
102
RTVSPost2010PropOp46
 70
     1
102
RTVSPost2010Prop47
 90
       50
102
RTVSPost2010PropOp47
 70
     1
102
RTVSPost2010Prop48
 90
       50
102
RTVSPost2010PropOp48
 70
     1
102
RTVSPost2010Prop49
280
     0
102
RTVSPost2010PropOp49
 70
     1
102
RTVSPost2010Prop50
 90
       50
102
RTVSPost2010PropOp50
 70
     1
102
RTVSPost2010Prop51ColorIndex
 90
      256
102
RTVSPost2010Prop51ColorRGB
 90
-16777216
102
RTVSPost2010PropOp51
 70
     0
102
RTVSPost2010Prop52
140
1.0
102
RTVSPost2010PropOp52
 70
     0
102
RTVSPost2010Prop53
 90
        2
102
RTVSPost2010PropOp53
 70
     1
102
RTVSPost2010Prop54
  1
strokes_ogs.tif
102
RTVSPost2010PropOp54
 70
     1
102
RTVSPost2010Prop55
280
     0
102
RTVSPost2010PropOp55
 70
     1
102
RTVSPost2010Prop56
140
1.0
102
RTVSPost2010PropOp56
 70
     1
102
RTVSPost2010Prop57
140
1.0
102
RTVSPost2010PropOp57
 70
     1
  0
XRECORD
  5
3FB
102
{ACAD_REACTORS
330
3FA
102
}
330
3FA
100
AcDbXrecord
280
     1
102
RTVSPropertyOp0
 70
     1
102
RTVSPropertyOp1
 70
     1
102
RTVSPropertyOp2
 70
     1
102
RTVSPropertyOp3
 70
     1
102
RTVSPropertyOp4
 70
     1
102
RTVSPropertyOp5
 70
     1
102
RTVSPropertyOp6
 70
     1
102
RTVSPropertyOp7
 70
     1
102
RTVSPropertyOp8
 70
     1
102
RTVSPropertyOp9
 70
     1
102
RTVSPropertyOp10
 70
     1
102
RTVSPropertyOp11
 70
     1
102
RTVSPropertyOp12
 70
     1
102
RTVSPropertyOp13
 70
     1
102
RTVSPropertyOp14
 70
     1
102
RTVSPropertyOp15
 70
     1
102
RTVSPropertyOp16
 70
     1
102
RTVSPropertyOp17
 70
     1
102
RTVSPropertyOp18
 70
     1
102
RTVSPropertyOp19
 70
     1
102
RTVSPropertyOp20
 70
     1
102
RTVSPropertyOp21
 70
     1
102
RTVSPropertyOp22
 70
     1
102
RTVSPropertyOp23
 70
     1
102
RTVSPropertyOp24
 70
     1
102
RTVSPropertyOp25
 70
     1
102
RTVSPropertyOp26
 70
     1
102
RTVSPropertyOp27
 70
     1
102
RTVSPropertyOp28
 70
     1
102
RTVSPropertyOp29
 70
     1
102
RTVSPropertyOp30
 70
     1
102
RTVSPropertyOp31
 70
     1
102
RTVSPropertyOp32
 70
     1
102
RTVSPropertyOp33
 70
     1
102
RTVSPropertyOp34
 70
     1
102
RTVSPropertyOp35
 70
     1
102
RTVSPropertyOp36
 70
     1
102
RTVSPropertyOp37
 70
     1
102
RTVSPropertyOp38
 70
     1
102
RTVSPropertyOp39
 70
     1
102
RTVSPropertyOp40
 70
     1
102
RTVSPropertyOp41
 70
     1
102
RTVSPropertyOp42
 70
     1
102
RTVSPropertyOp43
 70
     1
102
RTVSPropertyOp44
 70
     1
102
RTVSPropertyOp45
 70
     1
102
RTVSPropertyOp46
 70
     1
102
RTVSPropertyOp47
 70
     1
102
RTVSPropertyOp48
 70
     1
102
RTVSPropertyOp49
 70
     1
102
RTVSPropertyOp50
 70
     1
102
RTVSPropertyOp51
 70
     0
102
RTVSPropertyOp52
 70
     0
102
RTVSPropertyOp53
 70
     1
102
RTVSPropertyOp54
 70
     1
102
RTVSPropertyOp55
 70
     1
102
RTVSPropertyOp56
 70
     1
102
RTVSPropertyOp57
 70
     1
102
RTVSPost2010Prop28
280
     0
102
RTVSPost2010PropOp28
 70
     1
102
RTVSPost2010Prop29
280
     1
102
RTVSPost2010PropOp29
 70
     1
102
RTVSPost2010Prop30
280
     1
102
RTVSPost2010PropOp30
 70
     1
102
RTVSPost2010Prop31
280
     0
102
RTVSPost2010PropOp31
 70
     1
102
RTVSPost2010Prop32
280
     0
102
RTVSPost2010PropOp32
 70
     1
102
RTVSPost2010Prop33
280
     0
102
RTVSPost2010PropOp33
 70
     1
102
RTVSPost2010Prop34
280
     0
102
RTVSPost2010PropOp34
 70
     1
102
RTVSPost2010Prop35
280
     0
102
RTVSPost2010PropOp35
 70
     1
102
RTVSPost2010Prop36
280
     0
102
RTVSPost2010PropOp36
 70
     1
102
RTVSPost2010Prop37
 90
       50
102
RTVSPost2010PropOp37
 70
     1
102
RTVSPost2010Prop38
140
0.0
102
RTVSPost2010PropOp38
 70
     1
102
RTVSPost2010Prop39
140
1.0
102
RTVSPost2010PropOp39
 70
     1
102
RTVSPost2010Prop40
 90
        0
102
RTVSPost2010PropOp40
 70
     1
102
RTVSPost2010Prop41ColorIndex
 90
       18
102
RTVSPost2010Prop41ColorRGB
 90
        0
102
RTVSPost2010PropOp41
 70
     1
102
RTVSPost2010Prop42
 90
       50
102
RTVSPost2010PropOp42
 70
     1
102
RTVSPost2010Prop43
 90
        3
102
RTVSPost2010PropOp43
 70
     1
102
RTVSPost2010Prop44ColorIndex
 90
        5
102
RTVSPost2010Prop44ColorRGB
 90
      255
102
RTVSPost2010PropOp44
 70
     1
102
RTVSPost2010Prop45
280
     0
102
RTVSPost2010PropOp45
 70
     1
102
RTVSPost2010Prop46
 90
       50
102
RTVSPost2010PropOp46
 70
     1
102
RTVSPost2010Prop47
 90
       50
102
RTVSPost2010PropOp47
 70
     1
102
RTVSPost2010Prop48
 90
       50
102
RTVSPost2010PropOp48
 70
     1
102
RTVSPost2010Prop49
280
     0
102
RTVSPost2010PropOp49
 70
     1
102
RTVSPost2010Prop50
 90
       50
102
RTVSPost2010PropOp50
 70
     1
102
RTVSPost2010Prop51ColorIndex
 90
      256
102
RTVSPost2010Prop51ColorRGB
 90
-16777216
102
RTVSPost2010PropOp51
 70
     0
102
RTVSPost2010Prop52
140
1.0
102
RTVSPost2010PropOp52
 70
     0
102
RTVSPost2010Prop53
 90
        2
102
RTVSPost2010PropOp53
 70
     1
102
RTVSPost2010Prop54
  1
strokes_ogs.tif
102
RTVSPost2010PropOp54
 70
     1
102
RTVSPost2010Prop55
280
     0
102
RTVSPost2010PropOp55
 70
     1
102
RTVSPost2010Prop56
140
1.0
102
RTVSPost2010PropOp56
 70
     1
102
RTVSPost2010Prop57
140
1.0
102
RTVSPost2010PropOp57
 70
     1
  0
XRECORD
  5
403
102
{ACAD_REACTORS
330
402
102
}
330
402
100
AcDbXrecord
280
     1
102
RTVSPropertyOp0
 70
     1
102
RTVSPropertyOp1
 70
     1
102
RTVSPropertyOp2
 70
     1
102
RTVSPropertyOp3
 70
     1
102
RTVSPropertyOp4
 70
     1
102
RTVSPropertyOp5
 70
     1
102
RTVSPropertyOp6
 70
     1
102
RTVSPropertyOp7
 70
     1
102
RTVSPropertyOp8
 70
     1
102
RTVSPropertyOp9
 70
     1
102
RTVSPropertyOp10
 70
     1
102
RTVSPropertyOp11
 70
     1
102
RTVSPropertyOp12
 70
     1
102
RTVSPropertyOp13
 70
     1
102
RTVSPropertyOp14
 70
     1
102
RTVSPropertyOp15
 70
     1
102
RTVSPropertyOp16
 70
     1
102
RTVSPropertyOp17
 70
     1
102
RTVSPropertyOp18
 70
     1
102
RTVSPropertyOp19
 70
     1
102
RTVSPropertyOp20
 70
     1
102
RTVSPropertyOp21
 70
     1
102
RTVSPropertyOp22
 70
     1
102
RTVSPropertyOp23
 70
     1
102
RTVSPropertyOp24
 70
     1
102
RTVSPropertyOp25
 70
     1
102
RTVSPropertyOp26
 70
     1
102
RTVSPropertyOp27
 70
     1
102
RTVSPropertyOp28
 70
     1
102
RTVSPropertyOp29
 70
     1
102
RTVSPropertyOp30
 70
     1
102
RTVSPropertyOp31
 70
     1
102
RTVSPropertyOp32
 70
     1
102
RTVSPropertyOp33
 70
     1
102
RTVSPropertyOp34
 70
     1
102
RTVSPropertyOp35
 70
     1
102
RTVSPropertyOp36
 70
     1
102
RTVSPropertyOp37
 70
     1
102
RTVSPropertyOp38
 70
     1
102
RTVSPropertyOp39
 70
     1
102
RTVSPropertyOp40
 70
     1
102
RTVSPropertyOp41
 70
     1
102
RTVSPropertyOp42
 70
     1
102
RTVSPropertyOp43
 70
     1
102
RTVSPropertyOp44
 70
     1
102
RTVSPropertyOp45
 70
     1
102
RTVSPropertyOp46
 70
     1
102
RTVSPropertyOp47
 70
     1
102
RTVSPropertyOp48
 70
     1
102
RTVSPropertyOp49
 70
     1
102
RTVSPropertyOp50
 70
     1
102
RTVSPropertyOp51
 70
     0
102
RTVSPropertyOp52
 70
     0
102
RTVSPropertyOp53
 70
     1
102
RTVSPropertyOp54
 70
     1
102
RTVSPropertyOp55
 70
     1
102
RTVSPropertyOp56
 70
     1
102
RTVSPropertyOp57
 70
     1
102
RTVSPost2010Prop28
280
     0
102
RTVSPost2010PropOp28
 70
     1
102
RTVSPost2010Prop29
280
     1
102
RTVSPost2010PropOp29
 70
     1
102
RTVSPost2010Prop30
280
     1
102
RTVSPost2010PropOp30
 70
     1
102
RTVSPost2010Prop31
280
     0
102
RTVSPost2010PropOp31
 70
     1
102
RTVSPost2010Prop32
280
     0
102
RTVSPost2010PropOp32
 70
     1
102
RTVSPost2010Prop33
280
     0
102
RTVSPost2010PropOp33
 70
     1
102
RTVSPost2010Prop34
280
     0
102
RTVSPost2010PropOp34
 70
     1
102
RTVSPost2010Prop35
280
     0
102
RTVSPost2010PropOp35
 70
     1
102
RTVSPost2010Prop36
280
     0
102
RTVSPost2010PropOp36
 70
     1
102
RTVSPost2010Prop37
 90
       50
102
RTVSPost2010PropOp37
 70
     1
102
RTVSPost2010Prop38
140
0.0
102
RTVSPost2010PropOp38
 70
     1
102
RTVSPost2010Prop39
140
1.0
102
RTVSPost2010PropOp39
 70
     1
102
RTVSPost2010Prop40
 90
        0
102
RTVSPost2010PropOp40
 70
     1
102
RTVSPost2010Prop41ColorIndex
 90
       18
102
RTVSPost2010Prop41ColorRGB
 90
        0
102
RTVSPost2010PropOp41
 70
     1
102
RTVSPost2010Prop42
 90
       50
102
RTVSPost2010PropOp42
 70
     1
102
RTVSPost2010Prop43
 90
        3
102
RTVSPost2010PropOp43
 70
     1
102
RTVSPost2010Prop44ColorIndex
 90
        5
102
RTVSPost2010Prop44ColorRGB
 90
      255
102
RTVSPost2010PropOp44
 70
     1
102
RTVSPost2010Prop45
280
     0
102
RTVSPost2010PropOp45
 70
     1
102
RTVSPost2010Prop46
 90
       50
102
RTVSPost2010PropOp46
 70
     1
102
RTVSPost2010Prop47
 90
       50
102
RTVSPost2010PropOp47
 70
     1
102
RTVSPost2010Prop48
 90
       50
102
RTVSPost2010PropOp48
 70
     1
102
RTVSPost2010Prop49
280
     0
102
RTVSPost2010PropOp49
 70
     1
102
RTVSPost2010Prop50
 90
       50
102
RTVSPost2010PropOp50
 70
     1
102
RTVSPost2010Prop51ColorIndex
 90
      256
102
RTVSPost2010Prop51ColorRGB
 90
-16777216
102
RTVSPost2010PropOp51
 70
     0
102
RTVSPost2010Prop52
140
1.0
102
RTVSPost2010PropOp52
 70
     0
102
RTVSPost2010Prop53
 90
        2
102
RTVSPost2010PropOp53
 70
     1
102
RTVSPost2010Prop54
  1
strokes_ogs.tif
102
RTVSPost2010PropOp54
 70
     1
102
RTVSPost2010Prop55
280
     0
102
RTVSPost2010PropOp55
 70
     1
102
RTVSPost2010Prop56
140
1.0
102
RTVSPost2010PropOp56
 70
     1
102
RTVSPost2010Prop57
140
1.0
102
RTVSPost2010PropOp57
 70
     1
  0
XRECORD
  5
3F7
102
{ACAD_REACTORS
330
3F6
102
}
330
3F6
100
AcDbXrecord
280
     1
102
RTVSPropertyOp0
 70
     1
102
RTVSPropertyOp1
 70
     1
102
RTVSPropertyOp2
 70
     1
102
RTVSPropertyOp3
 70
     1
102
RTVSPropertyOp4
 70
     1
102
RTVSPropertyOp5
 70
     1
102
RTVSPropertyOp6
 70
     1
102
RTVSPropertyOp7
 70
     1
102
RTVSPropertyOp8
 70
     1
102
RTVSPropertyOp9
 70
     1
102
RTVSPropertyOp10
 70
     1
102
RTVSPropertyOp11
 70
     1
102
RTVSPropertyOp12
 70
     1
102
RTVSPropertyOp13
 70
     1
102
RTVSPropertyOp14
 70
     1
102
RTVSPropertyOp15
 70
     1
102
RTVSPropertyOp16
 70
     1
102
RTVSPropertyOp17
 70
     1
102
RTVSPropertyOp18
 70
     1
102
RTVSPropertyOp19
 70
     1
102
RTVSPropertyOp20
 70
     1
102
RTVSPropertyOp21
 70
     1
102
RTVSPropertyOp22
 70
     1
102
RTVSPropertyOp23
 70
     1
102
RTVSPropertyOp24
 70
     1
102
RTVSPropertyOp25
 70
     1
102
RTVSPropertyOp26
 70
     1
102
RTVSPropertyOp27
 70
     1
102
RTVSPropertyOp28
 70
     1
102
RTVSPropertyOp29
 70
     1
102
RTVSPropertyOp30
 70
     1
102
RTVSPropertyOp31
 70
     1
102
RTVSPropertyOp32
 70
     1
102
RTVSPropertyOp33
 70
     1
102
RTVSPropertyOp34
 70
     1
102
RTVSPropertyOp35
 70
     1
102
RTVSPropertyOp36
 70
     1
102
RTVSPropertyOp37
 70
     1
102
RTVSPropertyOp38
 70
     1
102
RTVSPropertyOp39
 70
     1
102
RTVSPropertyOp40
 70
     1
102
RTVSPropertyOp41
 70
     1
102
RTVSPropertyOp42
 70
     1
102
RTVSPropertyOp43
 70
     1
102
RTVSPropertyOp44
 70
     1
102
RTVSPropertyOp45
 70
     1
102
RTVSPropertyOp46
 70
     1
102
RTVSPropertyOp47
 70
     1
102
RTVSPropertyOp48
 70
     1
102
RTVSPropertyOp49
 70
     1
102
RTVSPropertyOp50
 70
     1
102
RTVSPropertyOp51
 70
     0
102
RTVSPropertyOp52
 70
     0
102
RTVSPropertyOp53
 70
     1
102
RTVSPropertyOp54
 70
     1
102
RTVSPropertyOp55
 70
     1
102
RTVSPropertyOp56
 70
     1
102
RTVSPropertyOp57
 70
     1
102
RTVSPost2010Prop28
280
     0
102
RTVSPost2010PropOp28
 70
     1
102
RTVSPost2010Prop29
280
     1
102
RTVSPost2010PropOp29
 70
     1
102
RTVSPost2010Prop30
280
     1
102
RTVSPost2010PropOp30
 70
     1
102
RTVSPost2010Prop31
280
     0
102
RTVSPost2010PropOp31
 70
     1
102
RTVSPost2010Prop32
280
     0
102
RTVSPost2010PropOp32
 70
     1
102
RTVSPost2010Prop33
280
     0
102
RTVSPost2010PropOp33
 70
     1
102
RTVSPost2010Prop34
280
     0
102
RTVSPost2010PropOp34
 70
     1
102
RTVSPost2010Prop35
280
     0
102
RTVSPost2010PropOp35
 70
     1
102
RTVSPost2010Prop36
280
     0
102
RTVSPost2010PropOp36
 70
     1
102
RTVSPost2010Prop37
 90
       50
102
RTVSPost2010PropOp37
 70
     1
102
RTVSPost2010Prop38
140
0.0
102
RTVSPost2010PropOp38
 70
     1
102
RTVSPost2010Prop39
140
1.0
102
RTVSPost2010PropOp39
 70
     1
102
RTVSPost2010Prop40
 90
        0
102
RTVSPost2010PropOp40
 70
     1
102
RTVSPost2010Prop41ColorIndex
 90
       18
102
RTVSPost2010Prop41ColorRGB
 90
        0
102
RTVSPost2010PropOp41
 70
     1
102
RTVSPost2010Prop42
 90
       50
102
RTVSPost2010PropOp42
 70
     1
102
RTVSPost2010Prop43
 90
        3
102
RTVSPost2010PropOp43
 70
     1
102
RTVSPost2010Prop44ColorIndex
 90
        5
102
RTVSPost2010Prop44ColorRGB
 90
      255
102
RTVSPost2010PropOp44
 70
     1
102
RTVSPost2010Prop45
280
     0
102
RTVSPost2010PropOp45
 70
     1
102
RTVSPost2010Prop46
 90
       50
102
RTVSPost2010PropOp46
 70
     1
102
RTVSPost2010Prop47
 90
       50
102
RTVSPost2010PropOp47
 70
     1
102
RTVSPost2010Prop48
 90
       50
102
RTVSPost2010PropOp48
 70
     1
102
RTVSPost2010Prop49
280
     0
102
RTVSPost2010PropOp49
 70
     1
102
RTVSPost2010Prop50
 90
       50
102
RTVSPost2010PropOp50
 70
     1
102
RTVSPost2010Prop51ColorIndex
 90
      256
102
RTVSPost2010Prop51ColorRGB
 90
-16777216
102
RTVSPost2010PropOp51
 70
     0
102
RTVSPost2010Prop52
140
1.0
102
RTVSPost2010PropOp52
 70
     0
102
RTVSPost2010Prop53
 90
        2
102
RTVSPost2010PropOp53
 70
     1
102
RTVSPost2010Prop54
  1
strokes_ogs.tif
102
RTVSPost2010PropOp54
 70
     1
102
RTVSPost2010Prop55
280
     0
102
RTVSPost2010PropOp55
 70
     1
102
RTVSPost2010Prop56
140
1.0
102
RTVSPost2010PropOp56
 70
     1
102
RTVSPost2010Prop57
140
1.0
102
RTVSPost2010PropOp57
 70
     1
  0
XRECORD
  5
3F9
102
{ACAD_REACTORS
330
3F8
102
}
330
3F8
100
AcDbXrecord
280
     1
102
RTVSPropertyOp0
 70
     1
102
RTVSPropertyOp1
 70
     1
102
RTVSPropertyOp2
 70
     1
102
RTVSPropertyOp3
 70
     1
102
RTVSPropertyOp4
 70
     1
102
RTVSPropertyOp5
 70
     1
102
RTVSPropertyOp6
 70
     1
102
RTVSPropertyOp7
 70
     1
102
RTVSPropertyOp8
 70
     1
102
RTVSPropertyOp9
 70
     1
102
RTVSPropertyOp10
 70
     1
102
RTVSPropertyOp11
 70
     1
102
RTVSPropertyOp12
 70
     1
102
RTVSPropertyOp13
 70
     1
102
RTVSPropertyOp14
 70
     1
102
RTVSPropertyOp15
 70
     1
102
RTVSPropertyOp16
 70
     1
102
RTVSPropertyOp17
 70
     1
102
RTVSPropertyOp18
 70
     1
102
RTVSPropertyOp19
 70
     1
102
RTVSPropertyOp20
 70
     1
102
RTVSPropertyOp21
 70
     1
102
RTVSPropertyOp22
 70
     1
102
RTVSPropertyOp23
 70
     1
102
RTVSPropertyOp24
 70
     1
102
RTVSPropertyOp25
 70
     1
102
RTVSPropertyOp26
 70
     1
102
RTVSPropertyOp27
 70
     1
102
RTVSPropertyOp28
 70
     1
102
RTVSPropertyOp29
 70
     1
102
RTVSPropertyOp30
 70
     1
102
RTVSPropertyOp31
 70
     1
102
RTVSPropertyOp32
 70
     1
102
RTVSPropertyOp33
 70
     1
102
RTVSPropertyOp34
 70
     1
102
RTVSPropertyOp35
 70
     1
102
RTVSPropertyOp36
 70
     1
102
RTVSPropertyOp37
 70
     1
102
RTVSPropertyOp38
 70
     1
102
RTVSPropertyOp39
 70
     1
102
RTVSPropertyOp40
 70
     1
102
RTVSPropertyOp41
 70
     1
102
RTVSPropertyOp42
 70
     1
102
RTVSPropertyOp43
 70
     1
102
RTVSPropertyOp44
 70
     1
102
RTVSPropertyOp45
 70
     1
102
RTVSPropertyOp46
 70
     1
102
RTVSPropertyOp47
 70
     1
102
RTVSPropertyOp48
 70
     1
102
RTVSPropertyOp49
 70
     1
102
RTVSPropertyOp50
 70
     1
102
RTVSPropertyOp51
 70
     0
102
RTVSPropertyOp52
 70
     0
102
RTVSPropertyOp53
 70
     1
102
RTVSPropertyOp54
 70
     1
102
RTVSPropertyOp55
 70
     1
102
RTVSPropertyOp56
 70
     1
102
RTVSPropertyOp57
 70
     1
102
RTVSPost2010Prop28
280
     0
102
RTVSPost2010PropOp28
 70
     1
102
RTVSPost2010Prop29
280
     1
102
RTVSPost2010PropOp29
 70
     1
102
RTVSPost2010Prop30
280
     1
102
RTVSPost2010PropOp30
 70
     1
102
RTVSPost2010Prop31
280
     0
102
RTVSPost2010PropOp31
 70
     1
102
RTVSPost2010Prop32
280
     0
102
RTVSPost2010PropOp32
 70
     1
102
RTVSPost2010Prop33
280
     0
102
RTVSPost2010PropOp33
 70
     1
102
RTVSPost2010Prop34
280
     0
102
RTVSPost2010PropOp34
 70
     1
102
RTVSPost2010Prop35
280
     0
102
RTVSPost2010PropOp35
 70
     1
102
RTVSPost2010Prop36
280
     0
102
RTVSPost2010PropOp36
 70
     1
102
RTVSPost2010Prop37
 90
       50
102
RTVSPost2010PropOp37
 70
     1
102
RTVSPost2010Prop38
140
0.0
102
RTVSPost2010PropOp38
 70
     1
102
RTVSPost2010Prop39
140
1.0
102
RTVSPost2010PropOp39
 70
     1
102
RTVSPost2010Prop40
 90
        0
102
RTVSPost2010PropOp40
 70
     1
102
RTVSPost2010Prop41ColorIndex
 90
       18
102
RTVSPost2010Prop41ColorRGB
 90
        0
102
RTVSPost2010PropOp41
 70
     1
102
RTVSPost2010Prop42
 90
       50
102
RTVSPost2010PropOp42
 70
     1
102
RTVSPost2010Prop43
 90
        3
102
RTVSPost2010PropOp43
 70
     1
102
RTVSPost2010Prop44ColorIndex
 90
        5
102
RTVSPost2010Prop44ColorRGB
 90
      255
102
RTVSPost2010PropOp44
 70
     1
102
RTVSPost2010Prop45
280
     0
102
RTVSPost2010PropOp45
 70
     1
102
RTVSPost2010Prop46
 90
       50
102
RTVSPost2010PropOp46
 70
     1
102
RTVSPost2010Prop47
 90
       50
102
RTVSPost2010PropOp47
 70
     1
102
RTVSPost2010Prop48
 90
       50
102
RTVSPost2010PropOp48
 70
     1
102
RTVSPost2010Prop49
280
     0
102
RTVSPost2010PropOp49
 70
     1
102
RTVSPost2010Prop50
 90
       50
102
RTVSPost2010PropOp50
 70
     1
102
RTVSPost2010Prop51ColorIndex
 90
      256
102
RTVSPost2010Prop51ColorRGB
 90
-16777216
102
RTVSPost2010PropOp51
 70
     0
102
RTVSPost2010Prop52
140
1.0
102
RTVSPost2010PropOp52
 70
     0
102
RTVSPost2010Prop53
 90
        2
102
RTVSPost2010PropOp53
 70
     1
102
RTVSPost2010Prop54
  1
strokes_ogs.tif
102
RTVSPost2010PropOp54
 70
     1
102
RTVSPost2010Prop55
280
     0
102
RTVSPost2010PropOp55
 70
     1
102
RTVSPost2010Prop56
140
1.0
102
RTVSPost2010PropOp56
 70
     1
102
RTVSPost2010Prop57
140
1.0
102
RTVSPost2010PropOp57
 70
     1
  0
XRECORD
  5
409
102
{ACAD_REACTORS
330
408
102
}
330
408
100
AcDbXrecord
280
     1
102
RTVSPropertyOp0
 70
     0
102
RTVSPropertyOp1
 70
     0
102
RTVSPropertyOp2
 70
     0
102
RTVSPropertyOp3
 70
     0
102
RTVSPropertyOp4
 70
     0
102
RTVSPropertyOp5
 70
     0
102
RTVSPropertyOp6
 70
     0
102
RTVSPropertyOp7
 70
     0
102
RTVSPropertyOp8
 70
     0
102
RTVSPropertyOp9
 70
     0
102
RTVSPropertyOp10
 70
     0
102
RTVSPropertyOp11
 70
     0
102
RTVSPropertyOp12
 70
     0
102
RTVSPropertyOp13
 70
     0
102
RTVSPropertyOp14
 70
     2
102
RTVSPropertyOp15
 70
     0
102
RTVSPropertyOp16
 70
     0
102
RTVSPropertyOp17
 70
     0
102
RTVSPropertyOp18
 70
     0
102
RTVSPropertyOp19
 70
     0
102
RTVSPropertyOp20
 70
     0
102
RTVSPropertyOp21
 70
     0
102
RTVSPropertyOp22
 70
     0
102
RTVSPropertyOp23
 70
     0
102
RTVSPropertyOp24
 70
     0
102
RTVSPropertyOp25
 70
     0
102
RTVSPropertyOp26
 70
     0
102
RTVSPropertyOp27
 70
     0
102
RTVSPropertyOp28
 70
     0
102
RTVSPropertyOp29
 70
     0
102
RTVSPropertyOp30
 70
     0
102
RTVSPropertyOp31
 70
     0
102
RTVSPropertyOp32
 70
     0
102
RTVSPropertyOp33
 70
     0
102
RTVSPropertyOp34
 70
     0
102
RTVSPropertyOp35
 70
     0
102
RTVSPropertyOp36
 70
     0
102
RTVSPropertyOp37
 70
     0
102
RTVSPropertyOp38
 70
     0
102
RTVSPropertyOp39
 70
     0
102
RTVSPropertyOp40
 70
     0
102
RTVSPropertyOp41
 70
     0
102
RTVSPropertyOp42
 70
     0
102
RTVSPropertyOp43
 70
     0
102
RTVSPropertyOp44
 70
     0
102
RTVSPropertyOp45
 70
     0
102
RTVSPropertyOp46
 70
     0
102
RTVSPropertyOp47
 70
     0
102
RTVSPropertyOp48
 70
     0
102
RTVSPropertyOp49
 70
     0
102
RTVSPropertyOp50
 70
     0
102
RTVSPropertyOp51
 70
     0
102
RTVSPropertyOp52
 70
     0
102
RTVSPropertyOp53
 70
     0
102
RTVSPropertyOp54
 70
     0
102
RTVSPropertyOp55
 70
     0
102
RTVSPropertyOp56
 70
     0
102
RTVSPropertyOp57
 70
     0
102
RTVSPost2010Prop28
280
     0
102
RTVSPost2010PropOp28
 70
     0
102
RTVSPost2010Prop29
280
     1
102
RTVSPost2010PropOp29
 70
     0
102
RTVSPost2010Prop30
280
     1
102
RTVSPost2010PropOp30
 70
     0
102
RTVSPost2010Prop31
280
     0
102
RTVSPost2010PropOp31
 70
     0
102
RTVSPost2010Prop32
280
     0
102
RTVSPost2010PropOp32
 70
     0
102
RTVSPost2010Prop33
280
     0
102
RTVSPost2010PropOp33
 70
     0
102
RTVSPost2010Prop34
280
     0
102
RTVSPost2010PropOp34
 70
     0
102
RTVSPost2010Prop35
280
     0
102
RTVSPost2010PropOp35
 70
     0
102
RTVSPost2010Prop36
280
     0
102
RTVSPost2010PropOp36
 70
     0
102
RTVSPost2010Prop37
 90
       50
102
RTVSPost2010PropOp37
 70
     0
102
RTVSPost2010Prop38
140
0.0
102
RTVSPost2010PropOp38
 70
     0
102
RTVSPost2010Prop39
140
1.0
102
RTVSPost2010PropOp39
 70
     0
102
RTVSPost2010Prop40
 90
        0
102
RTVSPost2010PropOp40
 70
     0
102
RTVSPost2010Prop41ColorIndex
 90
       18
102
RTVSPost2010Prop41ColorRGB
 90
        0
102
RTVSPost2010PropOp41
 70
     0
102
RTVSPost2010Prop42
 90
       50
102
RTVSPost2010PropOp42
 70
     0
102
RTVSPost2010Prop43
 90
        3
102
RTVSPost2010PropOp43
 70
     0
102
RTVSPost2010Prop44ColorIndex
 90
        5
102
RTVSPost2010Prop44ColorRGB
 90
      255
102
RTVSPost2010PropOp44
 70
     0
102
RTVSPost2010Prop45
280
     0
102
RTVSPost2010PropOp45
 70
     0
102
RTVSPost2010Prop46
 90
       50
102
RTVSPost2010PropOp46
 70
     0
102
RTVSPost2010Prop47
 90
       50
102
RTVSPost2010PropOp47
 70
     0
102
RTVSPost2010Prop48
 90
       50
102
RTVSPost2010PropOp48
 70
     0
102
RTVSPost2010Prop49
280
     0
102
RTVSPost2010PropOp49
 70
     0
102
RTVSPost2010Prop50
 90
       50
102
RTVSPost2010PropOp50
 70
     0
102
RTVSPost2010Prop51ColorIndex
 90
      256
102
RTVSPost2010Prop51ColorRGB
 90
-16777216
102
RTVSPost2010PropOp51
 70
     0
102
RTVSPost2010Prop52
140
1.0
102
RTVSPost2010PropOp52
 70
     0
102
RTVSPost2010Prop53
 90
        2
102
RTVSPost2010PropOp53
 70
     0
102
RTVSPost2010Prop54
  1
strokes_ogs.tif
102
RTVSPost2010PropOp54
 70
     0
102
RTVSPost2010Prop55
280
     0
102
RTVSPost2010PropOp55
 70
     0
102
RTVSPost2010Prop56
140
1.0
102
RTVSPost2010PropOp56
 70
     0
102
RTVSPost2010Prop57
140
1.0
102
RTVSPost2010PropOp57
 70
     0
  0
XRECORD
  5
401
102
{ACAD_REACTORS
330
400
102
}
330
400
100
AcDbXrecord
280
     1
102
RTVSPropertyOp0
 70
     1
102
RTVSPropertyOp1
 70
     1
102
RTVSPropertyOp2
 70
     1
102
RTVSPropertyOp3
 70
     1
102
RTVSPropertyOp4
 70
     1
102
RTVSPropertyOp5
 70
     1
102
RTVSPropertyOp6
 70
     1
102
RTVSPropertyOp7
 70
     1
102
RTVSPropertyOp8
 70
     1
102
RTVSPropertyOp9
 70
     1
102
RTVSPropertyOp10
 70
     1
102
RTVSPropertyOp11
 70
     1
102
RTVSPropertyOp12
 70
     1
102
RTVSPropertyOp13
 70
     1
102
RTVSPropertyOp14
 70
     1
102
RTVSPropertyOp15
 70
     1
102
RTVSPropertyOp16
 70
     1
102
RTVSPropertyOp17
 70
     1
102
RTVSPropertyOp18
 70
     1
102
RTVSPropertyOp19
 70
     1
102
RTVSPropertyOp20
 70
     1
102
RTVSPropertyOp21
 70
     1
102
RTVSPropertyOp22
 70
     1
102
RTVSPropertyOp23
 70
     1
102
RTVSPropertyOp24
 70
     1
102
RTVSPropertyOp25
 70
     1
102
RTVSPropertyOp26
 70
     1
102
RTVSPropertyOp27
 70
     1
102
RTVSPropertyOp28
 70
     1
102
RTVSPropertyOp29
 70
     1
102
RTVSPropertyOp30
 70
     1
102
RTVSPropertyOp31
 70
     1
102
RTVSPropertyOp32
 70
     1
102
RTVSPropertyOp33
 70
     1
102
RTVSPropertyOp34
 70
     1
102
RTVSPropertyOp35
 70
     1
102
RTVSPropertyOp36
 70
     1
102
RTVSPropertyOp37
 70
     1
102
RTVSPropertyOp38
 70
     1
102
RTVSPropertyOp39
 70
     1
102
RTVSPropertyOp40
 70
     1
102
RTVSPropertyOp41
 70
     1
102
RTVSPropertyOp42
 70
     1
102
RTVSPropertyOp43
 70
     1
102
RTVSPropertyOp44
 70
     1
102
RTVSPropertyOp45
 70
     1
102
RTVSPropertyOp46
 70
     1
102
RTVSPropertyOp47
 70
     1
102
RTVSPropertyOp48
 70
     1
102
RTVSPropertyOp49
 70
     1
102
RTVSPropertyOp50
 70
     1
102
RTVSPropertyOp51
 70
     0
102
RTVSPropertyOp52
 70
     0
102
RTVSPropertyOp53
 70
     1
102
RTVSPropertyOp54
 70
     1
102
RTVSPropertyOp55
 70
     1
102
RTVSPropertyOp56
 70
     1
102
RTVSPropertyOp57
 70
     1
102
RTVSPost2010Prop28
280
     0
102
RTVSPost2010PropOp28
 70
     1
102
RTVSPost2010Prop29
280
     1
102
RTVSPost2010PropOp29
 70
     1
102
RTVSPost2010Prop30
280
     1
102
RTVSPost2010PropOp30
 70
     1
102
RTVSPost2010Prop31
280
     0
102
RTVSPost2010PropOp31
 70
     1
102
RTVSPost2010Prop32
280
     0
102
RTVSPost2010PropOp32
 70
     1
102
RTVSPost2010Prop33
280
     0
102
RTVSPost2010PropOp33
 70
     1
102
RTVSPost2010Prop34
280
     0
102
RTVSPost2010PropOp34
 70
     1
102
RTVSPost2010Prop35
280
     0
102
RTVSPost2010PropOp35
 70
     1
102
RTVSPost2010Prop36
280
     0
102
RTVSPost2010PropOp36
 70
     1
102
RTVSPost2010Prop37
 90
       50
102
RTVSPost2010PropOp37
 70
     1
102
RTVSPost2010Prop38
140
0.0
102
RTVSPost2010PropOp38
 70
     1
102
RTVSPost2010Prop39
140
1.0
102
RTVSPost2010PropOp39
 70
     1
102
RTVSPost2010Prop40
 90
        0
102
RTVSPost2010PropOp40
 70
     1
102
RTVSPost2010Prop41ColorIndex
 90
       18
102
RTVSPost2010Prop41ColorRGB
 90
        0
102
RTVSPost2010PropOp41
 70
     1
102
RTVSPost2010Prop42
 90
       50
102
RTVSPost2010PropOp42
 70
     1
102
RTVSPost2010Prop43
 90
        3
102
RTVSPost2010PropOp43
 70
     1
102
RTVSPost2010Prop44ColorIndex
 90
        5
102
RTVSPost2010Prop44ColorRGB
 90
      255
102
RTVSPost2010PropOp44
 70
     1
102
RTVSPost2010Prop45
280
     0
102
RTVSPost2010PropOp45
 70
     1
102
RTVSPost2010Prop46
 90
       50
102
RTVSPost2010PropOp46
 70
     1
102
RTVSPost2010Prop47
 90
       50
102
RTVSPost2010PropOp47
 70
     1
102
RTVSPost2010Prop48
 90
       50
102
RTVSPost2010PropOp48
 70
     1
102
RTVSPost2010Prop49
280
     0
102
RTVSPost2010PropOp49
 70
     1
102
RTVSPost2010Prop50
 90
       50
102
RTVSPost2010PropOp50
 70
     1
102
RTVSPost2010Prop51ColorIndex
 90
      256
102
RTVSPost2010Prop51ColorRGB
 90
-16777216
102
RTVSPost2010PropOp51
 70
     0
102
RTVSPost2010Prop52
140
1.0
102
RTVSPost2010PropOp52
 70
     0
102
RTVSPost2010Prop53
 90
        2
102
RTVSPost2010PropOp53
 70
     1
102
RTVSPost2010Prop54
  1
strokes_ogs.tif
102
RTVSPost2010PropOp54
 70
     1
102
RTVSPost2010Prop55
280
     0
102
RTVSPost2010PropOp55
 70
     1
102
RTVSPost2010Prop56
140
1.0
102
RTVSPost2010PropOp56
 70
     1
102
RTVSPost2010Prop57
140
1.0
102
RTVSPost2010PropOp57
 70
     1
  0
XRECORD
  5
3E5
102
{ACAD_REACTORS
330
3E4
102
}
330
3E4
100
AcDbXrecord
280
     1
102
RTVSPropertyOp0
 70
     1
102
RTVSPropertyOp1
 70
     1
102
RTVSPropertyOp2
 70
     1
102
RTVSPropertyOp3
 70
     1
102
RTVSPropertyOp4
 70
     1
102
RTVSPropertyOp5
 70
     1
102
RTVSPropertyOp6
 70
     1
102
RTVSPropertyOp7
 70
     1
102
RTVSPropertyOp8
 70
     1
102
RTVSPropertyOp9
 70
     1
102
RTVSPropertyOp10
 70
     1
102
RTVSPropertyOp11
 70
     1
102
RTVSPropertyOp12
 70
     1
102
RTVSPropertyOp13
 70
     1
102
RTVSPropertyOp14
 70
     1
102
RTVSPropertyOp15
 70
     1
102
RTVSPropertyOp16
 70
     1
102
RTVSPropertyOp17
 70
     1
102
RTVSPropertyOp18
 70
     1
102
RTVSPropertyOp19
 70
     1
102
RTVSPropertyOp20
 70
     1
102
RTVSPropertyOp21
 70
     1
102
RTVSPropertyOp22
 70
     1
102
RTVSPropertyOp23
 70
     1
102
RTVSPropertyOp24
 70
     1
102
RTVSPropertyOp25
 70
     1
102
RTVSPropertyOp26
 70
     1
102
RTVSPropertyOp27
 70
     1
102
RTVSPropertyOp28
 70
     1
102
RTVSPropertyOp29
 70
     1
102
RTVSPropertyOp30
 70
     1
102
RTVSPropertyOp31
 70
     1
102
RTVSPropertyOp32
 70
     1
102
RTVSPropertyOp33
 70
     1
102
RTVSPropertyOp34
 70
     1
102
RTVSPropertyOp35
 70
     1
102
RTVSPropertyOp36
 70
     1
102
RTVSPropertyOp37
 70
     1
102
RTVSPropertyOp38
 70
     1
102
RTVSPropertyOp39
 70
     1
102
RTVSPropertyOp40
 70
     1
102
RTVSPropertyOp41
 70
     1
102
RTVSPropertyOp42
 70
     1
102
RTVSPropertyOp43
 70
     1
102
RTVSPropertyOp44
 70
     1
102
RTVSPropertyOp45
 70
     1
102
RTVSPropertyOp46
 70
     1
102
RTVSPropertyOp47
 70
     1
102
RTVSPropertyOp48
 70
     1
102
RTVSPropertyOp49
 70
     1
102
RTVSPropertyOp50
 70
     1
102
RTVSPropertyOp51
 70
     0
102
RTVSPropertyOp52
 70
     0
102
RTVSPropertyOp53
 70
     1
102
RTVSPropertyOp54
 70
     1
102
RTVSPropertyOp55
 70
     1
102
RTVSPropertyOp56
 70
     1
102
RTVSPropertyOp57
 70
     1
102
RTVSPost2010Prop28
280
     0
102
RTVSPost2010PropOp28
 70
     1
102
RTVSPost2010Prop29
280
     1
102
RTVSPost2010PropOp29
 70
     1
102
RTVSPost2010Prop30
280
     1
102
RTVSPost2010PropOp30
 70
     1
102
RTVSPost2010Prop31
280
     0
102
RTVSPost2010PropOp31
 70
     1
102
RTVSPost2010Prop32
280
     0
102
RTVSPost2010PropOp32
 70
     1
102
RTVSPost2010Prop33
280
     0
102
RTVSPost2010PropOp33
 70
     1
102
RTVSPost2010Prop34
280
     0
102
RTVSPost2010PropOp34
 70
     1
102
RTVSPost2010Prop35
280
     0
102
RTVSPost2010PropOp35
 70
     1
102
RTVSPost2010Prop36
280
     0
102
RTVSPost2010PropOp36
 70
     1
102
RTVSPost2010Prop37
 90
       50
102
RTVSPost2010PropOp37
 70
     1
102
RTVSPost2010Prop38
140
0.0
102
RTVSPost2010PropOp38
 70
     1
102
RTVSPost2010Prop39
140
1.0
102
RTVSPost2010PropOp39
 70
     1
102
RTVSPost2010Prop40
 90
        0
102
RTVSPost2010PropOp40
 70
     1
102
RTVSPost2010Prop41ColorIndex
 90
       18
102
RTVSPost2010Prop41ColorRGB
 90
        0
102
RTVSPost2010PropOp41
 70
     1
102
RTVSPost2010Prop42
 90
       50
102
RTVSPost2010PropOp42
 70
     1
102
RTVSPost2010Prop43
 90
        3
102
RTVSPost2010PropOp43
 70
     1
102
RTVSPost2010Prop44ColorIndex
 90
        5
102
RTVSPost2010Prop44ColorRGB
 90
      255
102
RTVSPost2010PropOp44
 70
     1
102
RTVSPost2010Prop45
280
     0
102
RTVSPost2010PropOp45
 70
     1
102
RTVSPost2010Prop46
 90
       50
102
RTVSPost2010PropOp46
 70
     1
102
RTVSPost2010Prop47
 90
       50
102
RTVSPost2010PropOp47
 70
     1
102
RTVSPost2010Prop48
 90
       50
102
RTVSPost2010PropOp48
 70
     1
102
RTVSPost2010Prop49
280
     0
102
RTVSPost2010PropOp49
 70
     1
102
RTVSPost2010Prop50
 90
       50
102
RTVSPost2010PropOp50
 70
     1
102
RTVSPost2010Prop51ColorIndex
 90
      256
102
RTVSPost2010Prop51ColorRGB
 90
-16777216
102
RTVSPost2010PropOp51
 70
     0
102
RTVSPost2010Prop52
140
1.0
102
RTVSPost2010PropOp52
 70
     0
102
RTVSPost2010Prop53
 90
        2
102
RTVSPost2010PropOp53
 70
     1
102
RTVSPost2010Prop54
  1
strokes_ogs.tif
102
RTVSPost2010PropOp54
 70
     1
102
RTVSPost2010Prop55
280
     0
102
RTVSPost2010PropOp55
 70
     1
102
RTVSPost2010Prop56
140
1.0
102
RTVSPost2010PropOp56
 70
     1
102
RTVSPost2010Prop57
140
1.0
102
RTVSPost2010PropOp57
 70
     1
  0
XRECORD
  5
3E7
102
{ACAD_REACTORS
330
3E6
102
}
330
3E6
100
AcDbXrecord
280
     1
102
RTVSPropertyOp0
 70
     1
102
RTVSPropertyOp1
 70
     1
102
RTVSPropertyOp2
 70
     1
102
RTVSPropertyOp3
 70
     1
102
RTVSPropertyOp4
 70
     1
102
RTVSPropertyOp5
 70
     1
102
RTVSPropertyOp6
 70
     1
102
RTVSPropertyOp7
 70
     1
102
RTVSPropertyOp8
 70
     1
102
RTVSPropertyOp9
 70
     1
102
RTVSPropertyOp10
 70
     1
102
RTVSPropertyOp11
 70
     1
102
RTVSPropertyOp12
 70
     1
102
RTVSPropertyOp13
 70
     1
102
RTVSPropertyOp14
 70
     1
102
RTVSPropertyOp15
 70
     1
102
RTVSPropertyOp16
 70
     1
102
RTVSPropertyOp17
 70
     1
102
RTVSPropertyOp18
 70
     1
102
RTVSPropertyOp19
 70
     1
102
RTVSPropertyOp20
 70
     1
102
RTVSPropertyOp21
 70
     1
102
RTVSPropertyOp22
 70
     1
102
RTVSPropertyOp23
 70
     1
102
RTVSPropertyOp24
 70
     1
102
RTVSPropertyOp25
 70
     1
102
RTVSPropertyOp26
 70
     1
102
RTVSPropertyOp27
 70
     1
102
RTVSPropertyOp28
 70
     1
102
RTVSPropertyOp29
 70
     1
102
RTVSPropertyOp30
 70
     1
102
RTVSPropertyOp31
 70
     1
102
RTVSPropertyOp32
 70
     1
102
RTVSPropertyOp33
 70
     1
102
RTVSPropertyOp34
 70
     1
102
RTVSPropertyOp35
 70
     1
102
RTVSPropertyOp36
 70
     1
102
RTVSPropertyOp37
 70
     1
102
RTVSPropertyOp38
 70
     1
102
RTVSPropertyOp39
 70
     1
102
RTVSPropertyOp40
 70
     1
102
RTVSPropertyOp41
 70
     1
102
RTVSPropertyOp42
 70
     1
102
RTVSPropertyOp43
 70
     1
102
RTVSPropertyOp44
 70
     1
102
RTVSPropertyOp45
 70
     1
102
RTVSPropertyOp46
 70
     1
102
RTVSPropertyOp47
 70
     1
102
RTVSPropertyOp48
 70
     1
102
RTVSPropertyOp49
 70
     1
102
RTVSPropertyOp50
 70
     1
102
RTVSPropertyOp51
 70
     0
102
RTVSPropertyOp52
 70
     0
102
RTVSPropertyOp53
 70
     1
102
RTVSPropertyOp54
 70
     1
102
RTVSPropertyOp55
 70
     1
102
RTVSPropertyOp56
 70
     1
102
RTVSPropertyOp57
 70
     1
102
RTVSPost2010Prop28
280
     0
102
RTVSPost2010PropOp28
 70
     1
102
RTVSPost2010Prop29
280
     1
102
RTVSPost2010PropOp29
 70
     1
102
RTVSPost2010Prop30
280
     1
102
RTVSPost2010PropOp30
 70
     1
102
RTVSPost2010Prop31
280
     0
102
RTVSPost2010PropOp31
 70
     1
102
RTVSPost2010Prop32
280
     0
102
RTVSPost2010PropOp32
 70
     1
102
RTVSPost2010Prop33
280
     0
102
RTVSPost2010PropOp33
 70
     1
102
RTVSPost2010Prop34
280
     0
102
RTVSPost2010PropOp34
 70
     1
102
RTVSPost2010Prop35
280
     0
102
RTVSPost2010PropOp35
 70
     1
102
RTVSPost2010Prop36
280
     0
102
RTVSPost2010PropOp36
 70
     1
102
RTVSPost2010Prop37
 90
       50
102
RTVSPost2010PropOp37
 70
     1
102
RTVSPost2010Prop38
140
0.0
102
RTVSPost2010PropOp38
 70
     1
102
RTVSPost2010Prop39
140
1.0
102
RTVSPost2010PropOp39
 70
     1
102
RTVSPost2010Prop40
 90
        0
102
RTVSPost2010PropOp40
 70
     1
102
RTVSPost2010Prop41ColorIndex
 90
       18
102
RTVSPost2010Prop41ColorRGB
 90
        0
102
RTVSPost2010PropOp41
 70
     1
102
RTVSPost2010Prop42
 90
       50
102
RTVSPost2010PropOp42
 70
     1
102
RTVSPost2010Prop43
 90
        3
102
RTVSPost2010PropOp43
 70
     1
102
RTVSPost2010Prop44ColorIndex
 90
        5
102
RTVSPost2010Prop44ColorRGB
 90
      255
102
RTVSPost2010PropOp44
 70
     1
102
RTVSPost2010Prop45
280
     0
102
RTVSPost2010PropOp45
 70
     1
102
RTVSPost2010Prop46
 90
       50
102
RTVSPost2010PropOp46
 70
     1
102
RTVSPost2010Prop47
 90
       50
102
RTVSPost2010PropOp47
 70
     1
102
RTVSPost2010Prop48
 90
       50
102
RTVSPost2010PropOp48
 70
     1
102
RTVSPost2010Prop49
280
     0
102
RTVSPost2010PropOp49
 70
     1
102
RTVSPost2010Prop50
 90
       50
102
RTVSPost2010PropOp50
 70
     1
102
RTVSPost2010Prop51ColorIndex
 90
      256
102
RTVSPost2010Prop51ColorRGB
 90
-16777216
102
RTVSPost2010PropOp51
 70
     0
102
RTVSPost2010Prop52
140
1.0
102
RTVSPost2010PropOp52
 70
     0
102
RTVSPost2010Prop53
 90
        2
102
RTVSPost2010PropOp53
 70
     1
102
RTVSPost2010Prop54
  1
strokes_ogs.tif
102
RTVSPost2010PropOp54
 70
     1
102
RTVSPost2010Prop55
280
     0
102
RTVSPost2010PropOp55
 70
     1
102
RTVSPost2010Prop56
140
1.0
102
RTVSPost2010PropOp56
 70
     1
102
RTVSPost2010Prop57
140
1.0
102
RTVSPost2010PropOp57
 70
     1
  0
XRECORD
  5
3E9
102
{ACAD_REACTORS
330
3E8
102
}
330
3E8
100
AcDbXrecord
280
     1
102
RTVSPropertyOp0
 70
     1
102
RTVSPropertyOp1
 70
     1
102
RTVSPropertyOp2
 70
     1
102
RTVSPropertyOp3
 70
     1
102
RTVSPropertyOp4
 70
     1
102
RTVSPropertyOp5
 70
     1
102
RTVSPropertyOp6
 70
     1
102
RTVSPropertyOp7
 70
     1
102
RTVSPropertyOp8
 70
     1
102
RTVSPropertyOp9
 70
     1
102
RTVSPropertyOp10
 70
     1
102
RTVSPropertyOp11
 70
     1
102
RTVSPropertyOp12
 70
     1
102
RTVSPropertyOp13
 70
     1
102
RTVSPropertyOp14
 70
     1
102
RTVSPropertyOp15
 70
     1
102
RTVSPropertyOp16
 70
     1
102
RTVSPropertyOp17
 70
     1
102
RTVSPropertyOp18
 70
     1
102
RTVSPropertyOp19
 70
     1
102
RTVSPropertyOp20
 70
     1
102
RTVSPropertyOp21
 70
     1
102
RTVSPropertyOp22
 70
     1
102
RTVSPropertyOp23
 70
     1
102
RTVSPropertyOp24
 70
     1
102
RTVSPropertyOp25
 70
     1
102
RTVSPropertyOp26
 70
     1
102
RTVSPropertyOp27
 70
     1
102
RTVSPropertyOp28
 70
     1
102
RTVSPropertyOp29
 70
     1
102
RTVSPropertyOp30
 70
     1
102
RTVSPropertyOp31
 70
     1
102
RTVSPropertyOp32
 70
     1
102
RTVSPropertyOp33
 70
     1
102
RTVSPropertyOp34
 70
     1
102
RTVSPropertyOp35
 70
     1
102
RTVSPropertyOp36
 70
     1
102
RTVSPropertyOp37
 70
     1
102
RTVSPropertyOp38
 70
     1
102
RTVSPropertyOp39
 70
     1
102
RTVSPropertyOp40
 70
     1
102
RTVSPropertyOp41
 70
     1
102
RTVSPropertyOp42
 70
     1
102
RTVSPropertyOp43
 70
     1
102
RTVSPropertyOp44
 70
     1
102
RTVSPropertyOp45
 70
     1
102
RTVSPropertyOp46
 70
     1
102
RTVSPropertyOp47
 70
     1
102
RTVSPropertyOp48
 70
     1
102
RTVSPropertyOp49
 70
     1
102
RTVSPropertyOp50
 70
     1
102
RTVSPropertyOp51
 70
     0
102
RTVSPropertyOp52
 70
     0
102
RTVSPropertyOp53
 70
     1
102
RTVSPropertyOp54
 70
     1
102
RTVSPropertyOp55
 70
     1
102
RTVSPropertyOp56
 70
     1
102
RTVSPropertyOp57
 70
     1
102
RTVSPost2010Prop28
280
     0
102
RTVSPost2010PropOp28
 70
     1
102
RTVSPost2010Prop29
280
     1
102
RTVSPost2010PropOp29
 70
     1
102
RTVSPost2010Prop30
280
     1
102
RTVSPost2010PropOp30
 70
     1
102
RTVSPost2010Prop31
280
     0
102
RTVSPost2010PropOp31
 70
     1
102
RTVSPost2010Prop32
280
     0
102
RTVSPost2010PropOp32
 70
     1
102
RTVSPost2010Prop33
280
     0
102
RTVSPost2010PropOp33
 70
     1
102
RTVSPost2010Prop34
280
     0
102
RTVSPost2010PropOp34
 70
     1
102
RTVSPost2010Prop35
280
     0
102
RTVSPost2010PropOp35
 70
     1
102
RTVSPost2010Prop36
280
     0
102
RTVSPost2010PropOp36
 70
     1
102
RTVSPost2010Prop37
 90
       50
102
RTVSPost2010PropOp37
 70
     1
102
RTVSPost2010Prop38
140
0.0
102
RTVSPost2010PropOp38
 70
     1
102
RTVSPost2010Prop39
140
1.0
102
RTVSPost2010PropOp39
 70
     1
102
RTVSPost2010Prop40
 90
        0
102
RTVSPost2010PropOp40
 70
     1
102
RTVSPost2010Prop41ColorIndex
 90
       18
102
RTVSPost2010Prop41ColorRGB
 90
        0
102
RTVSPost2010PropOp41
 70
     1
102
RTVSPost2010Prop42
 90
       50
102
RTVSPost2010PropOp42
 70
     1
102
RTVSPost2010Prop43
 90
        3
102
RTVSPost2010PropOp43
 70
     1
102
RTVSPost2010Prop44ColorIndex
 90
        5
102
RTVSPost2010Prop44ColorRGB
 90
      255
102
RTVSPost2010PropOp44
 70
     1
102
RTVSPost2010Prop45
280
     0
102
RTVSPost2010PropOp45
 70
     1
102
RTVSPost2010Prop46
 90
       50
102
RTVSPost2010PropOp46
 70
     1
102
RTVSPost2010Prop47
 90
       50
102
RTVSPost2010PropOp47
 70
     1
102
RTVSPost2010Prop48
 90
       50
102
RTVSPost2010PropOp48
 70
     1
102
RTVSPost2010Prop49
280
     0
102
RTVSPost2010PropOp49
 70
     1
102
RTVSPost2010Prop50
 90
       50
102
RTVSPost2010PropOp50
 70
     1
102
RTVSPost2010Prop51ColorIndex
 90
      256
102
RTVSPost2010Prop51ColorRGB
 90
-16777216
102
RTVSPost2010PropOp51
 70
     0
102
RTVSPost2010Prop52
140
1.0
102
RTVSPost2010PropOp52
 70
     0
102
RTVSPost2010Prop53
 90
        2
102
RTVSPost2010PropOp53
 70
     1
102
RTVSPost2010Prop54
  1
strokes_ogs.tif
102
RTVSPost2010PropOp54
 70
     1
102
RTVSPost2010Prop55
280
     0
102
RTVSPost2010PropOp55
 70
     1
102
RTVSPost2010Prop56
140
1.0
102
RTVSPost2010PropOp56
 70
     1
102
RTVSPost2010Prop57
140
1.0
102
RTVSPost2010PropOp57
 70
     1
  0
XRECORD
  5
3EB
102
{ACAD_REACTORS
330
3EA
102
}
330
3EA
100
AcDbXrecord
280
     1
102
RTVSPropertyOp0
 70
     1
102
RTVSPropertyOp1
 70
     1
102
RTVSPropertyOp2
 70
     1
102
RTVSPropertyOp3
 70
     1
102
RTVSPropertyOp4
 70
     1
102
RTVSPropertyOp5
 70
     1
102
RTVSPropertyOp6
 70
     1
102
RTVSPropertyOp7
 70
     1
102
RTVSPropertyOp8
 70
     1
102
RTVSPropertyOp9
 70
     1
102
RTVSPropertyOp10
 70
     1
102
RTVSPropertyOp11
 70
     1
102
RTVSPropertyOp12
 70
     1
102
RTVSPropertyOp13
 70
     1
102
RTVSPropertyOp14
 70
     1
102
RTVSPropertyOp15
 70
     1
102
RTVSPropertyOp16
 70
     1
102
RTVSPropertyOp17
 70
     1
102
RTVSPropertyOp18
 70
     1
102
RTVSPropertyOp19
 70
     1
102
RTVSPropertyOp20
 70
     1
102
RTVSPropertyOp21
 70
     1
102
RTVSPropertyOp22
 70
     1
102
RTVSPropertyOp23
 70
     1
102
RTVSPropertyOp24
 70
     1
102
RTVSPropertyOp25
 70
     1
102
RTVSPropertyOp26
 70
     1
102
RTVSPropertyOp27
 70
     1
102
RTVSPropertyOp28
 70
     1
102
RTVSPropertyOp29
 70
     1
102
RTVSPropertyOp30
 70
     1
102
RTVSPropertyOp31
 70
     1
102
RTVSPropertyOp32
 70
     1
102
RTVSPropertyOp33
 70
     1
102
RTVSPropertyOp34
 70
     1
102
RTVSPropertyOp35
 70
     1
102
RTVSPropertyOp36
 70
     1
102
RTVSPropertyOp37
 70
     1
102
RTVSPropertyOp38
 70
     1
102
RTVSPropertyOp39
 70
     1
102
RTVSPropertyOp40
 70
     1
102
RTVSPropertyOp41
 70
     1
102
RTVSPropertyOp42
 70
     1
102
RTVSPropertyOp43
 70
     1
102
RTVSPropertyOp44
 70
     1
102
RTVSPropertyOp45
 70
     1
102
RTVSPropertyOp46
 70
     1
102
RTVSPropertyOp47
 70
     1
102
RTVSPropertyOp48
 70
     1
102
RTVSPropertyOp49
 70
     1
102
RTVSPropertyOp50
 70
     1
102
RTVSPropertyOp51
 70
     0
102
RTVSPropertyOp52
 70
     0
102
RTVSPropertyOp53
 70
     1
102
RTVSPropertyOp54
 70
     1
102
RTVSPropertyOp55
 70
     1
102
RTVSPropertyOp56
 70
     1
102
RTVSPropertyOp57
 70
     1
102
RTVSPost2010Prop28
280
     0
102
RTVSPost2010PropOp28
 70
     1
102
RTVSPost2010Prop29
280
     1
102
RTVSPost2010PropOp29
 70
     1
102
RTVSPost2010Prop30
280
     1
102
RTVSPost2010PropOp30
 70
     1
102
RTVSPost2010Prop31
280
     0
102
RTVSPost2010PropOp31
 70
     1
102
RTVSPost2010Prop32
280
     0
102
RTVSPost2010PropOp32
 70
     1
102
RTVSPost2010Prop33
280
     0
102
RTVSPost2010PropOp33
 70
     1
102
RTVSPost2010Prop34
280
     0
102
RTVSPost2010PropOp34
 70
     1
102
RTVSPost2010Prop35
280
     0
102
RTVSPost2010PropOp35
 70
     1
102
RTVSPost2010Prop36
280
     0
102
RTVSPost2010PropOp36
 70
     1
102
RTVSPost2010Prop37
 90
       50
102
RTVSPost2010PropOp37
 70
     1
102
RTVSPost2010Prop38
140
0.0
102
RTVSPost2010PropOp38
 70
     1
102
RTVSPost2010Prop39
140
1.0
102
RTVSPost2010PropOp39
 70
     1
102
RTVSPost2010Prop40
 90
        0
102
RTVSPost2010PropOp40
 70
     1
102
RTVSPost2010Prop41ColorIndex
 90
       18
102
RTVSPost2010Prop41ColorRGB
 90
        0
102
RTVSPost2010PropOp41
 70
     1
102
RTVSPost2010Prop42
 90
       50
102
RTVSPost2010PropOp42
 70
     1
102
RTVSPost2010Prop43
 90
        3
102
RTVSPost2010PropOp43
 70
     1
102
RTVSPost2010Prop44ColorIndex
 90
        5
102
RTVSPost2010Prop44ColorRGB
 90
      255
102
RTVSPost2010PropOp44
 70
     1
102
RTVSPost2010Prop45
280
     0
102
RTVSPost2010PropOp45
 70
     1
102
RTVSPost2010Prop46
 90
       50
102
RTVSPost2010PropOp46
 70
     1
102
RTVSPost2010Prop47
 90
       50
102
RTVSPost2010PropOp47
 70
     1
102
RTVSPost2010Prop48
 90
       50
102
RTVSPost2010PropOp48
 70
     1
102
RTVSPost2010Prop49
280
     0
102
RTVSPost2010PropOp49
 70
     1
102
RTVSPost2010Prop50
 90
       50
102
RTVSPost2010PropOp50
 70
     1
102
RTVSPost2010Prop51ColorIndex
 90
      256
102
RTVSPost2010Prop51ColorRGB
 90
-16777216
102
RTVSPost2010PropOp51
 70
     0
102
RTVSPost2010Prop52
140
1.0
102
RTVSPost2010PropOp52
 70
     0
102
RTVSPost2010Prop53
 90
        2
102
RTVSPost2010PropOp53
 70
     1
102
RTVSPost2010Prop54
  1
strokes_ogs.tif
102
RTVSPost2010PropOp54
 70
     1
102
RTVSPost2010Prop55
280
     0
102
RTVSPost2010PropOp55
 70
     1
102
RTVSPost2010Prop56
140
1.0
102
RTVSPost2010PropOp56
 70
     1
102
RTVSPost2010Prop57
140
1.0
102
RTVSPost2010PropOp57
 70
     1
  0
XRECORD
  5
3F1
102
{ACAD_REACTORS
330
3F0
102
}
330
3F0
100
AcDbXrecord
280
     1
102
RTVSPropertyOp0
 70
     1
102
RTVSPropertyOp1
 70
     1
102
RTVSPropertyOp2
 70
     1
102
RTVSPropertyOp3
 70
     1
102
RTVSPropertyOp4
 70
     1
102
RTVSPropertyOp5
 70
     1
102
RTVSPropertyOp6
 70
     1
102
RTVSPropertyOp7
 70
     1
102
RTVSPropertyOp8
 70
     1
102
RTVSPropertyOp9
 70
     1
102
RTVSPropertyOp10
 70
     1
102
RTVSPropertyOp11
 70
     1
102
RTVSPropertyOp12
 70
     1
102
RTVSPropertyOp13
 70
     1
102
RTVSPropertyOp14
 70
     1
102
RTVSPropertyOp15
 70
     1
102
RTVSPropertyOp16
 70
     1
102
RTVSPropertyOp17
 70
     1
102
RTVSPropertyOp18
 70
     1
102
RTVSPropertyOp19
 70
     1
102
RTVSPropertyOp20
 70
     1
102
RTVSPropertyOp21
 70
     1
102
RTVSPropertyOp22
 70
     1
102
RTVSPropertyOp23
 70
     1
102
RTVSPropertyOp24
 70
     1
102
RTVSPropertyOp25
 70
     1
102
RTVSPropertyOp26
 70
     1
102
RTVSPropertyOp27
 70
     1
102
RTVSPropertyOp28
 70
     1
102
RTVSPropertyOp29
 70
     1
102
RTVSPropertyOp30
 70
     1
102
RTVSPropertyOp31
 70
     1
102
RTVSPropertyOp32
 70
     1
102
RTVSPropertyOp33
 70
     1
102
RTVSPropertyOp34
 70
     1
102
RTVSPropertyOp35
 70
     1
102
RTVSPropertyOp36
 70
     1
102
RTVSPropertyOp37
 70
     1
102
RTVSPropertyOp38
 70
     1
102
RTVSPropertyOp39
 70
     1
102
RTVSPropertyOp40
 70
     1
102
RTVSPropertyOp41
 70
     1
102
RTVSPropertyOp42
 70
     1
102
RTVSPropertyOp43
 70
     1
102
RTVSPropertyOp44
 70
     1
102
RTVSPropertyOp45
 70
     1
102
RTVSPropertyOp46
 70
     1
102
RTVSPropertyOp47
 70
     1
102
RTVSPropertyOp48
 70
     1
102
RTVSPropertyOp49
 70
     1
102
RTVSPropertyOp50
 70
     1
102
RTVSPropertyOp51
 70
     0
102
RTVSPropertyOp52
 70
     0
102
RTVSPropertyOp53
 70
     1
102
RTVSPropertyOp54
 70
     1
102
RTVSPropertyOp55
 70
     1
102
RTVSPropertyOp56
 70
     1
102
RTVSPropertyOp57
 70
     1
102
RTVSPost2010Prop28
280
     0
102
RTVSPost2010PropOp28
 70
     1
102
RTVSPost2010Prop29
280
     1
102
RTVSPost2010PropOp29
 70
     1
102
RTVSPost2010Prop30
280
     1
102
RTVSPost2010PropOp30
 70
     1
102
RTVSPost2010Prop31
280
     0
102
RTVSPost2010PropOp31
 70
     1
102
RTVSPost2010Prop32
280
     0
102
RTVSPost2010PropOp32
 70
     1
102
RTVSPost2010Prop33
280
     0
102
RTVSPost2010PropOp33
 70
     1
102
RTVSPost2010Prop34
280
     0
102
RTVSPost2010PropOp34
 70
     1
102
RTVSPost2010Prop35
280
     0
102
RTVSPost2010PropOp35
 70
     1
102
RTVSPost2010Prop36
280
     0
102
RTVSPost2010PropOp36
 70
     1
102
RTVSPost2010Prop37
 90
       50
102
RTVSPost2010PropOp37
 70
     1
102
RTVSPost2010Prop38
140
0.0
102
RTVSPost2010PropOp38
 70
     1
102
RTVSPost2010Prop39
140
1.0
102
RTVSPost2010PropOp39
 70
     1
102
RTVSPost2010Prop40
 90
        0
102
RTVSPost2010PropOp40
 70
     1
102
RTVSPost2010Prop41ColorIndex
 90
       18
102
RTVSPost2010Prop41ColorRGB
 90
        0
102
RTVSPost2010PropOp41
 70
     1
102
RTVSPost2010Prop42
 90
       50
102
RTVSPost2010PropOp42
 70
     1
102
RTVSPost2010Prop43
 90
        3
102
RTVSPost2010PropOp43
 70
     1
102
RTVSPost2010Prop44ColorIndex
 90
        5
102
RTVSPost2010Prop44ColorRGB
 90
      255
102
RTVSPost2010PropOp44
 70
     1
102
RTVSPost2010Prop45
280
     0
102
RTVSPost2010PropOp45
 70
     1
102
RTVSPost2010Prop46
 90
       50
102
RTVSPost2010PropOp46
 70
     1
102
RTVSPost2010Prop47
 90
       50
102
RTVSPost2010PropOp47
 70
     1
102
RTVSPost2010Prop48
 90
       50
102
RTVSPost2010PropOp48
 70
     1
102
RTVSPost2010Prop49
280
     0
102
RTVSPost2010PropOp49
 70
     1
102
RTVSPost2010Prop50
 90
       50
102
RTVSPost2010PropOp50
 70
     1
102
RTVSPost2010Prop51ColorIndex
 90
      256
102
RTVSPost2010Prop51ColorRGB
 90
-16777216
102
RTVSPost2010PropOp51
 70
     0
102
RTVSPost2010Prop52
140
1.0
102
RTVSPost2010PropOp52
 70
     0
102
RTVSPost2010Prop53
 90
        2
102
RTVSPost2010PropOp53
 70
     1
102
RTVSPost2010Prop54
  1
strokes_ogs.tif
102
RTVSPost2010PropOp54
 70
     1
102
RTVSPost2010Prop55
280
     0
102
RTVSPost2010PropOp55
 70
     1
102
RTVSPost2010Prop56
140
1.0
102
RTVSPost2010PropOp56
 70
     1
102
RTVSPost2010Prop57
140
1.0
102
RTVSPost2010PropOp57
 70
     1
  0
XRECORD
  5
405
102
{ACAD_REACTORS
330
404
102
}
330
404
100
AcDbXrecord
280
     1
102
RTVSPropertyOp0
 70
     0
102
RTVSPropertyOp1
 70
     0
102
RTVSPropertyOp2
 70
     0
102
RTVSPropertyOp3
 70
     0
102
RTVSPropertyOp4
 70
     0
102
RTVSPropertyOp5
 70
     0
102
RTVSPropertyOp6
 70
     0
102
RTVSPropertyOp7
 70
     0
102
RTVSPropertyOp8
 70
     0
102
RTVSPropertyOp9
 70
     0
102
RTVSPropertyOp10
 70
     0
102
RTVSPropertyOp11
 70
     0
102
RTVSPropertyOp12
 70
     0
102
RTVSPropertyOp13
 70
     0
102
RTVSPropertyOp14
 70
     2
102
RTVSPropertyOp15
 70
     0
102
RTVSPropertyOp16
 70
     0
102
RTVSPropertyOp17
 70
     0
102
RTVSPropertyOp18
 70
     0
102
RTVSPropertyOp19
 70
     0
102
RTVSPropertyOp20
 70
     0
102
RTVSPropertyOp21
 70
     0
102
RTVSPropertyOp22
 70
     0
102
RTVSPropertyOp23
 70
     0
102
RTVSPropertyOp24
 70
     0
102
RTVSPropertyOp25
 70
     0
102
RTVSPropertyOp26
 70
     0
102
RTVSPropertyOp27
 70
     0
102
RTVSPropertyOp28
 70
     0
102
RTVSPropertyOp29
 70
     0
102
RTVSPropertyOp30
 70
     0
102
RTVSPropertyOp31
 70
     0
102
RTVSPropertyOp32
 70
     0
102
RTVSPropertyOp33
 70
     0
102
RTVSPropertyOp34
 70
     0
102
RTVSPropertyOp35
 70
     0
102
RTVSPropertyOp36
 70
     0
102
RTVSPropertyOp37
 70
     0
102
RTVSPropertyOp38
 70
     0
102
RTVSPropertyOp39
 70
     0
102
RTVSPropertyOp40
 70
     0
102
RTVSPropertyOp41
 70
     0
102
RTVSPropertyOp42
 70
     0
102
RTVSPropertyOp43
 70
     0
102
RTVSPropertyOp44
 70
     0
102
RTVSPropertyOp45
 70
     0
102
RTVSPropertyOp46
 70
     0
102
RTVSPropertyOp47
 70
     0
102
RTVSPropertyOp48
 70
     0
102
RTVSPropertyOp49
 70
     0
102
RTVSPropertyOp50
 70
     0
102
RTVSPropertyOp51
 70
     0
102
RTVSPropertyOp52
 70
     0
102
RTVSPropertyOp53
 70
     0
102
RTVSPropertyOp54
 70
     0
102
RTVSPropertyOp55
 70
     0
102
RTVSPropertyOp56
 70
     0
102
RTVSPropertyOp57
 70
     0
102
RTVSPost2010Prop28
280
     0
102
RTVSPost2010PropOp28
 70
     0
102
RTVSPost2010Prop29
280
     1
102
RTVSPost2010PropOp29
 70
     0
102
RTVSPost2010Prop30
280
     1
102
RTVSPost2010PropOp30
 70
     0
102
RTVSPost2010Prop31
280
     0
102
RTVSPost2010PropOp31
 70
     0
102
RTVSPost2010Prop32
280
     0
102
RTVSPost2010PropOp32
 70
     0
102
RTVSPost2010Prop33
280
     0
102
RTVSPost2010PropOp33
 70
     0
102
RTVSPost2010Prop34
280
     0
102
RTVSPost2010PropOp34
 70
     0
102
RTVSPost2010Prop35
280
     0
102
RTVSPost2010PropOp35
 70
     0
102
RTVSPost2010Prop36
280
     0
102
RTVSPost2010PropOp36
 70
     0
102
RTVSPost2010Prop37
 90
       50
102
RTVSPost2010PropOp37
 70
     0
102
RTVSPost2010Prop38
140
0.0
102
RTVSPost2010PropOp38
 70
     0
102
RTVSPost2010Prop39
140
1.0
102
RTVSPost2010PropOp39
 70
     0
102
RTVSPost2010Prop40
 90
        0
102
RTVSPost2010PropOp40
 70
     0
102
RTVSPost2010Prop41ColorIndex
 90
       18
102
RTVSPost2010Prop41ColorRGB
 90
        0
102
RTVSPost2010PropOp41
 70
     0
102
RTVSPost2010Prop42
 90
       50
102
RTVSPost2010PropOp42
 70
     0
102
RTVSPost2010Prop43
 90
        3
102
RTVSPost2010PropOp43
 70
     0
102
RTVSPost2010Prop44ColorIndex
 90
        5
102
RTVSPost2010Prop44ColorRGB
 90
      255
102
RTVSPost2010PropOp44
 70
     0
102
RTVSPost2010Prop45
280
     0
102
RTVSPost2010PropOp45
 70
     0
102
RTVSPost2010Prop46
 90
       50
102
RTVSPost2010PropOp46
 70
     0
102
RTVSPost2010Prop47
 90
       50
102
RTVSPost2010PropOp47
 70
     0
102
RTVSPost2010Prop48
 90
       50
102
RTVSPost2010PropOp48
 70
     0
102
RTVSPost2010Prop49
280
     0
102
RTVSPost2010PropOp49
 70
     0
102
RTVSPost2010Prop50
 90
       50
102
RTVSPost2010PropOp50
 70
     0
102
RTVSPost2010Prop51ColorIndex
 90
      256
102
RTVSPost2010Prop51ColorRGB
 90
-16777216
102
RTVSPost2010PropOp51
 70
     0
102
RTVSPost2010Prop52
140
1.0
102
RTVSPost2010PropOp52
 70
     0
102
RTVSPost2010Prop53
 90
        2
102
RTVSPost2010PropOp53
 70
     0
102
RTVSPost2010Prop54
  1
strokes_ogs.tif
102
RTVSPost2010PropOp54
 70
     0
102
RTVSPost2010Prop55
280
     0
102
RTVSPost2010PropOp55
 70
     0
102
RTVSPost2010Prop56
140
1.0
102
RTVSPost2010PropOp56
 70
     0
102
RTVSPost2010Prop57
140
1.0
102
RTVSPost2010PropOp57
 70
     0
  0
XRECORD
  5
3FF
102
{ACAD_REACTORS
330
3FE
102
}
330
3FE
100
AcDbXrecord
280
     1
102
RTVSPropertyOp0
 70
     1
102
RTVSPropertyOp1
 70
     1
102
RTVSPropertyOp2
 70
     1
102
RTVSPropertyOp3
 70
     1
102
RTVSPropertyOp4
 70
     1
102
RTVSPropertyOp5
 70
     1
102
RTVSPropertyOp6
 70
     1
102
RTVSPropertyOp7
 70
     1
102
RTVSPropertyOp8
 70
     1
102
RTVSPropertyOp9
 70
     1
102
RTVSPropertyOp10
 70
     1
102
RTVSPropertyOp11
 70
     1
102
RTVSPropertyOp12
 70
     1
102
RTVSPropertyOp13
 70
     1
102
RTVSPropertyOp14
 70
     1
102
RTVSPropertyOp15
 70
     1
102
RTVSPropertyOp16
 70
     1
102
RTVSPropertyOp17
 70
     1
102
RTVSPropertyOp18
 70
     1
102
RTVSPropertyOp19
 70
     1
102
RTVSPropertyOp20
 70
     1
102
RTVSPropertyOp21
 70
     1
102
RTVSPropertyOp22
 70
     1
102
RTVSPropertyOp23
 70
     1
102
RTVSPropertyOp24
 70
     1
102
RTVSPropertyOp25
 70
     1
102
RTVSPropertyOp26
 70
     1
102
RTVSPropertyOp27
 70
     1
102
RTVSPropertyOp28
 70
     1
102
RTVSPropertyOp29
 70
     1
102
RTVSPropertyOp30
 70
     1
102
RTVSPropertyOp31
 70
     1
102
RTVSPropertyOp32
 70
     1
102
RTVSPropertyOp33
 70
     1
102
RTVSPropertyOp34
 70
     1
102
RTVSPropertyOp35
 70
     1
102
RTVSPropertyOp36
 70
     1
102
RTVSPropertyOp37
 70
     1
102
RTVSPropertyOp38
 70
     1
102
RTVSPropertyOp39
 70
     1
102
RTVSPropertyOp40
 70
     1
102
RTVSPropertyOp41
 70
     1
102
RTVSPropertyOp42
 70
     1
102
RTVSPropertyOp43
 70
     1
102
RTVSPropertyOp44
 70
     1
102
RTVSPropertyOp45
 70
     1
102
RTVSPropertyOp46
 70
     1
102
RTVSPropertyOp47
 70
     1
102
RTVSPropertyOp48
 70
     1
102
RTVSPropertyOp49
 70
     1
102
RTVSPropertyOp50
 70
     1
102
RTVSPropertyOp51
 70
     0
102
RTVSPropertyOp52
 70
     0
102
RTVSPropertyOp53
 70
     1
102
RTVSPropertyOp54
 70
     1
102
RTVSPropertyOp55
 70
     1
102
RTVSPropertyOp56
 70
     1
102
RTVSPropertyOp57
 70
     1
102
RTVSPost2010Prop28
280
     0
102
RTVSPost2010PropOp28
 70
     1
102
RTVSPost2010Prop29
280
     1
102
RTVSPost2010PropOp29
 70
     1
102
RTVSPost2010Prop30
280
     1
102
RTVSPost2010PropOp30
 70
     1
102
RTVSPost2010Prop31
280
     0
102
RTVSPost2010PropOp31
 70
     1
102
RTVSPost2010Prop32
280
     0
102
RTVSPost2010PropOp32
 70
     1
102
RTVSPost2010Prop33
280
     0
102
RTVSPost2010PropOp33
 70
     1
102
RTVSPost2010Prop34
280
     0
102
RTVSPost2010PropOp34
 70
     1
102
RTVSPost2010Prop35
280
     0
102
RTVSPost2010PropOp35
 70
     1
102
RTVSPost2010Prop36
280
     0
102
RTVSPost2010PropOp36
 70
     1
102
RTVSPost2010Prop37
 90
       50
102
RTVSPost2010PropOp37
 70
     1
102
RTVSPost2010Prop38
140
0.0
102
RTVSPost2010PropOp38
 70
     1
102
RTVSPost2010Prop39
140
1.0
102
RTVSPost2010PropOp39
 70
     1
102
RTVSPost2010Prop40
 90
        0
102
RTVSPost2010PropOp40
 70
     1
102
RTVSPost2010Prop41ColorIndex
 90
       18
102
RTVSPost2010Prop41ColorRGB
 90
        0
102
RTVSPost2010PropOp41
 70
     1
102
RTVSPost2010Prop42
 90
       50
102
RTVSPost2010PropOp42
 70
     1
102
RTVSPost2010Prop43
 90
        3
102
RTVSPost2010PropOp43
 70
     1
102
RTVSPost2010Prop44ColorIndex
 90
        5
102
RTVSPost2010Prop44ColorRGB
 90
      255
102
RTVSPost2010PropOp44
 70
     1
102
RTVSPost2010Prop45
280
     0
102
RTVSPost2010PropOp45
 70
     1
102
RTVSPost2010Prop46
 90
       50
102
RTVSPost2010PropOp46
 70
     1
102
RTVSPost2010Prop47
 90
       50
102
RTVSPost2010PropOp47
 70
     1
102
RTVSPost2010Prop48
 90
       50
102
RTVSPost2010PropOp48
 70
     1
102
RTVSPost2010Prop49
280
     0
102
RTVSPost2010PropOp49
 70
     1
102
RTVSPost2010Prop50
 90
       50
102
RTVSPost2010PropOp50
 70
     1
102
RTVSPost2010Prop51ColorIndex
 90
      256
102
RTVSPost2010Prop51ColorRGB
 90
-16777216
102
RTVSPost2010PropOp51
 70
     0
102
RTVSPost2010Prop52
140
1.0
102
RTVSPost2010PropOp52
 70
     0
102
RTVSPost2010Prop53
 90
        2
102
RTVSPost2010PropOp53
 70
     1
102
RTVSPost2010Prop54
  1
strokes_ogs.tif
102
RTVSPost2010PropOp54
 70
     1
102
RTVSPost2010Prop55
280
     0
102
RTVSPost2010PropOp55
 70
     1
102
RTVSPost2010Prop56
140
1.0
102
RTVSPost2010PropOp56
 70
     1
102
RTVSPost2010Prop57
140
1.0
102
RTVSPost2010PropOp57
 70
     1
  0
XRECORD
  5
407
102
{ACAD_REACTORS
330
406
102
}
330
406
100
AcDbXrecord
280
     1
102
RTVSPropertyOp0
 70
     0
102
RTVSPropertyOp1
 70
     0
102
RTVSPropertyOp2
 70
     0
102
RTVSPropertyOp3
 70
     0
102
RTVSPropertyOp4
 70
     0
102
RTVSPropertyOp5
 70
     0
102
RTVSPropertyOp6
 70
     0
102
RTVSPropertyOp7
 70
     0
102
RTVSPropertyOp8
 70
     0
102
RTVSPropertyOp9
 70
     0
102
RTVSPropertyOp10
 70
     0
102
RTVSPropertyOp11
 70
     0
102
RTVSPropertyOp12
 70
     0
102
RTVSPropertyOp13
 70
     0
102
RTVSPropertyOp14
 70
     2
102
RTVSPropertyOp15
 70
     0
102
RTVSPropertyOp16
 70
     0
102
RTVSPropertyOp17
 70
     0
102
RTVSPropertyOp18
 70
     0
102
RTVSPropertyOp19
 70
     0
102
RTVSPropertyOp20
 70
     0
102
RTVSPropertyOp21
 70
     0
102
RTVSPropertyOp22
 70
     0
102
RTVSPropertyOp23
 70
     0
102
RTVSPropertyOp24
 70
     0
102
RTVSPropertyOp25
 70
     0
102
RTVSPropertyOp26
 70
     0
102
RTVSPropertyOp27
 70
     0
102
RTVSPropertyOp28
 70
     0
102
RTVSPropertyOp29
 70
     0
102
RTVSPropertyOp30
 70
     0
102
RTVSPropertyOp31
 70
     0
102
RTVSPropertyOp32
 70
     0
102
RTVSPropertyOp33
 70
     0
102
RTVSPropertyOp34
 70
     0
102
RTVSPropertyOp35
 70
     0
102
RTVSPropertyOp36
 70
     0
102
RTVSPropertyOp37
 70
     0
102
RTVSPropertyOp38
 70
     0
102
RTVSPropertyOp39
 70
     0
102
RTVSPropertyOp40
 70
     0
102
RTVSPropertyOp41
 70
     0
102
RTVSPropertyOp42
 70
     0
102
RTVSPropertyOp43
 70
     0
102
RTVSPropertyOp44
 70
     0
102
RTVSPropertyOp45
 70
     0
102
RTVSPropertyOp46
 70
     0
102
RTVSPropertyOp47
 70
     0
102
RTVSPropertyOp48
 70
     0
102
RTVSPropertyOp49
 70
     0
102
RTVSPropertyOp50
 70
     0
102
RTVSPropertyOp51
 70
     0
102
RTVSPropertyOp52
 70
     0
102
RTVSPropertyOp53
 70
     0
102
RTVSPropertyOp54
 70
     0
102
RTVSPropertyOp55
 70
     0
102
RTVSPropertyOp56
 70
     0
102
RTVSPropertyOp57
 70
     0
102
RTVSPost2010Prop28
280
     0
102
RTVSPost2010PropOp28
 70
     0
102
RTVSPost2010Prop29
280
     1
102
RTVSPost2010PropOp29
 70
     0
102
RTVSPost2010Prop30
280
     1
102
RTVSPost2010PropOp30
 70
     0
102
RTVSPost2010Prop31
280
     0
102
RTVSPost2010PropOp31
 70
     0
102
RTVSPost2010Prop32
280
     0
102
RTVSPost2010PropOp32
 70
     0
102
RTVSPost2010Prop33
280
     0
102
RTVSPost2010PropOp33
 70
     0
102
RTVSPost2010Prop34
280
     0
102
RTVSPost2010PropOp34
 70
     0
102
RTVSPost2010Prop35
280
     0
102
RTVSPost2010PropOp35
 70
     0
102
RTVSPost2010Prop36
280
     0
102
RTVSPost2010PropOp36
 70
     0
102
RTVSPost2010Prop37
 90
       50
102
RTVSPost2010PropOp37
 70
     0
102
RTVSPost2010Prop38
140
0.0
102
RTVSPost2010PropOp38
 70
     0
102
RTVSPost2010Prop39
140
1.0
102
RTVSPost2010PropOp39
 70
     0
102
RTVSPost2010Prop40
 90
        0
102
RTVSPost2010PropOp40
 70
     0
102
RTVSPost2010Prop41ColorIndex
 90
       18
102
RTVSPost2010Prop41ColorRGB
 90
        0
102
RTVSPost2010PropOp41
 70
     0
102
RTVSPost2010Prop42
 90
       50
102
RTVSPost2010PropOp42
 70
     0
102
RTVSPost2010Prop43
 90
        3
102
RTVSPost2010PropOp43
 70
     0
102
RTVSPost2010Prop44ColorIndex
 90
        5
102
RTVSPost2010Prop44ColorRGB
 90
      255
102
RTVSPost2010PropOp44
 70
     0
102
RTVSPost2010Prop45
280
     0
102
RTVSPost2010PropOp45
 70
     0
102
RTVSPost2010Prop46
 90
       50
102
RTVSPost2010PropOp46
 70
     0
102
RTVSPost2010Prop47
 90
       50
102
RTVSPost2010PropOp47
 70
     0
102
RTVSPost2010Prop48
 90
       50
102
RTVSPost2010PropOp48
 70
     0
102
RTVSPost2010Prop49
280
     0
102
RTVSPost2010PropOp49
 70
     0
102
RTVSPost2010Prop50
 90
       50
102
RTVSPost2010PropOp50
 70
     0
102
RTVSPost2010Prop51ColorIndex
 90
      256
102
RTVSPost2010Prop51ColorRGB
 90
-16777216
102
RTVSPost2010PropOp51
 70
     0
102
RTVSPost2010Prop52
140
1.0
102
RTVSPost2010PropOp52
 70
     0
102
RTVSPost2010Prop53
 90
        2
102
RTVSPost2010PropOp53
 70
     0
102
RTVSPost2010Prop54
  1
strokes_ogs.tif
102
RTVSPost2010PropOp54
 70
     0
102
RTVSPost2010Prop55
280
     0
102
RTVSPost2010PropOp55
 70
     0
102
RTVSPost2010Prop56
140
1.0
102
RTVSPost2010PropOp56
 70
     0
102
RTVSPost2010Prop57
140
1.0
102
RTVSPost2010PropOp57
 70
     0
  0
XRECORD
  5
3F5
102
{ACAD_REACTORS
330
3F4
102
}
330
3F4
100
AcDbXrecord
280
     1
102
RTVSPropertyOp0
 70
     1
102
RTVSPropertyOp1
 70
     1
102
RTVSPropertyOp2
 70
     1
102
RTVSPropertyOp3
 70
     1
102
RTVSPropertyOp4
 70
     1
102
RTVSPropertyOp5
 70
     1
102
RTVSPropertyOp6
 70
     1
102
RTVSPropertyOp7
 70
     1
102
RTVSPropertyOp8
 70
     1
102
RTVSPropertyOp9
 70
     1
102
RTVSPropertyOp10
 70
     1
102
RTVSPropertyOp11
 70
     1
102
RTVSPropertyOp12
 70
     1
102
RTVSPropertyOp13
 70
     1
102
RTVSPropertyOp14
 70
     1
102
RTVSPropertyOp15
 70
     1
102
RTVSPropertyOp16
 70
     1
102
RTVSPropertyOp17
 70
     1
102
RTVSPropertyOp18
 70
     1
102
RTVSPropertyOp19
 70
     1
102
RTVSPropertyOp20
 70
     1
102
RTVSPropertyOp21
 70
     1
102
RTVSPropertyOp22
 70
     1
102
RTVSPropertyOp23
 70
     1
102
RTVSPropertyOp24
 70
     1
102
RTVSPropertyOp25
 70
     1
102
RTVSPropertyOp26
 70
     1
102
RTVSPropertyOp27
 70
     1
102
RTVSPropertyOp28
 70
     1
102
RTVSPropertyOp29
 70
     1
102
RTVSPropertyOp30
 70
     1
102
RTVSPropertyOp31
 70
     1
102
RTVSPropertyOp32
 70
     1
102
RTVSPropertyOp33
 70
     1
102
RTVSPropertyOp34
 70
     1
102
RTVSPropertyOp35
 70
     1
102
RTVSPropertyOp36
 70
     1
102
RTVSPropertyOp37
 70
     1
102
RTVSPropertyOp38
 70
     1
102
RTVSPropertyOp39
 70
     1
102
RTVSPropertyOp40
 70
     1
102
RTVSPropertyOp41
 70
     1
102
RTVSPropertyOp42
 70
     1
102
RTVSPropertyOp43
 70
     1
102
RTVSPropertyOp44
 70
     1
102
RTVSPropertyOp45
 70
     1
102
RTVSPropertyOp46
 70
     1
102
RTVSPropertyOp47
 70
     1
102
RTVSPropertyOp48
 70
     1
102
RTVSPropertyOp49
 70
     1
102
RTVSPropertyOp50
 70
     1
102
RTVSPropertyOp51
 70
     0
102
RTVSPropertyOp52
 70
     0
102
RTVSPropertyOp53
 70
     1
102
RTVSPropertyOp54
 70
     1
102
RTVSPropertyOp55
 70
     1
102
RTVSPropertyOp56
 70
     1
102
RTVSPropertyOp57
 70
     1
102
RTVSPost2010Prop28
280
     0
102
RTVSPost2010PropOp28
 70
     1
102
RTVSPost2010Prop29
280
     1
102
RTVSPost2010PropOp29
 70
     1
102
RTVSPost2010Prop30
280
     1
102
RTVSPost2010PropOp30
 70
     1
102
RTVSPost2010Prop31
280
     0
102
RTVSPost2010PropOp31
 70
     1
102
RTVSPost2010Prop32
280
     0
102
RTVSPost2010PropOp32
 70
     1
102
RTVSPost2010Prop33
280
     0
102
RTVSPost2010PropOp33
 70
     1
102
RTVSPost2010Prop34
280
     0
102
RTVSPost2010PropOp34
 70
     1
102
RTVSPost2010Prop35
280
     0
102
RTVSPost2010PropOp35
 70
     1
102
RTVSPost2010Prop36
280
     0
102
RTVSPost2010PropOp36
 70
     1
102
RTVSPost2010Prop37
 90
       50
102
RTVSPost2010PropOp37
 70
     1
102
RTVSPost2010Prop38
140
0.0
102
RTVSPost2010PropOp38
 70
     1
102
RTVSPost2010Prop39
140
1.0
102
RTVSPost2010PropOp39
 70
     1
102
RTVSPost2010Prop40
 90
        0
102
RTVSPost2010PropOp40
 70
     1
102
RTVSPost2010Prop41ColorIndex
 90
       18
102
RTVSPost2010Prop41ColorRGB
 90
        0
102
RTVSPost2010PropOp41
 70
     1
102
RTVSPost2010Prop42
 90
       50
102
RTVSPost2010PropOp42
 70
     1
102
RTVSPost2010Prop43
 90
        3
102
RTVSPost2010PropOp43
 70
     1
102
RTVSPost2010Prop44ColorIndex
 90
        5
102
RTVSPost2010Prop44ColorRGB
 90
      255
102
RTVSPost2010PropOp44
 70
     1
102
RTVSPost2010Prop45
280
     0
102
RTVSPost2010PropOp45
 70
     1
102
RTVSPost2010Prop46
 90
       50
102
RTVSPost2010PropOp46
 70
     1
102
RTVSPost2010Prop47
 90
       50
102
RTVSPost2010PropOp47
 70
     1
102
RTVSPost2010Prop48
 90
       50
102
RTVSPost2010PropOp48
 70
     1
102
RTVSPost2010Prop49
280
     0
102
RTVSPost2010PropOp49
 70
     1
102
RTVSPost2010Prop50
 90
       50
102
RTVSPost2010PropOp50
 70
     1
102
RTVSPost2010Prop51ColorIndex
 90
      256
102
RTVSPost2010Prop51ColorRGB
 90
-16777216
102
RTVSPost2010PropOp51
 70
     0
102
RTVSPost2010Prop52
140
1.0
102
RTVSPost2010PropOp52
 70
     0
102
RTVSPost2010Prop53
 90
        2
102
RTVSPost2010PropOp53
 70
     1
102
RTVSPost2010Prop54
  1
strokes_ogs.tif
102
RTVSPost2010PropOp54
 70
     1
102
RTVSPost2010Prop55
280
     0
102
RTVSPost2010PropOp55
 70
     1
102
RTVSPost2010Prop56
140
1.0
102
RTVSPost2010PropOp56
 70
     1
102
RTVSPost2010Prop57
140
1.0
102
RTVSPost2010PropOp57
 70
     1
  0
XRECORD
  5
413
102
{ACAD_REACTORS
330
412
102
}
330
412
100
AcDbXrecord
280
     1
102
RTVSPropertyOp0
 70
     1
102
RTVSPropertyOp1
 70
     1
102
RTVSPropertyOp2
 70
     1
102
RTVSPropertyOp3
 70
     1
102
RTVSPropertyOp4
 70
     1
102
RTVSPropertyOp5
 70
     1
102
RTVSPropertyOp6
 70
     1
102
RTVSPropertyOp7
 70
     1
102
RTVSPropertyOp8
 70
     1
102
RTVSPropertyOp9
 70
     1
102
RTVSPropertyOp10
 70
     1
102
RTVSPropertyOp11
 70
     1
102
RTVSPropertyOp12
 70
     1
102
RTVSPropertyOp13
 70
     1
102
RTVSPropertyOp14
 70
     1
102
RTVSPropertyOp15
 70
     1
102
RTVSPropertyOp16
 70
     1
102
RTVSPropertyOp17
 70
     1
102
RTVSPropertyOp18
 70
     1
102
RTVSPropertyOp19
 70
     1
102
RTVSPropertyOp20
 70
     1
102
RTVSPropertyOp21
 70
     1
102
RTVSPropertyOp22
 70
     1
102
RTVSPropertyOp23
 70
     1
102
RTVSPropertyOp24
 70
     1
102
RTVSPropertyOp25
 70
     1
102
RTVSPropertyOp26
 70
     1
102
RTVSPropertyOp27
 70
     1
102
RTVSPropertyOp28
 70
     1
102
RTVSPropertyOp29
 70
     1
102
RTVSPropertyOp30
 70
     1
102
RTVSPropertyOp31
 70
     1
102
RTVSPropertyOp32
 70
     1
102
RTVSPropertyOp33
 70
     1
102
RTVSPropertyOp34
 70
     1
102
RTVSPropertyOp35
 70
     1
102
RTVSPropertyOp36
 70
     1
102
RTVSPropertyOp37
 70
     1
102
RTVSPropertyOp38
 70
     1
102
RTVSPropertyOp39
 70
     1
102
RTVSPropertyOp40
 70
     1
102
RTVSPropertyOp41
 70
     1
102
RTVSPropertyOp42
 70
     1
102
RTVSPropertyOp43
 70
     1
102
RTVSPropertyOp44
 70
     1
102
RTVSPropertyOp45
 70
     1
102
RTVSPropertyOp46
 70
     1
102
RTVSPropertyOp47
 70
     1
102
RTVSPropertyOp48
 70
     1
102
RTVSPropertyOp49
 70
     1
102
RTVSPropertyOp50
 70
     1
102
RTVSPropertyOp51
 70
     0
102
RTVSPropertyOp52
 70
     0
102
RTVSPropertyOp53
 70
     1
102
RTVSPropertyOp54
 70
     1
102
RTVSPropertyOp55
 70
     1
102
RTVSPropertyOp56
 70
     1
102
RTVSPropertyOp57
 70
     1
102
RTVSPost2010Prop28
280
     0
102
RTVSPost2010PropOp28
 70
     1
102
RTVSPost2010Prop29
280
     1
102
RTVSPost2010PropOp29
 70
     1
102
RTVSPost2010Prop30
280
     1
102
RTVSPost2010PropOp30
 70
     1
102
RTVSPost2010Prop31
280
     0
102
RTVSPost2010PropOp31
 70
     1
102
RTVSPost2010Prop32
280
     0
102
RTVSPost2010PropOp32
 70
     1
102
RTVSPost2010Prop33
280
     0
102
RTVSPost2010PropOp33
 70
     1
102
RTVSPost2010Prop34
280
     0
102
RTVSPost2010PropOp34
 70
     1
102
RTVSPost2010Prop35
280
     0
102
RTVSPost2010PropOp35
 70
     1
102
RTVSPost2010Prop36
280
     0
102
RTVSPost2010PropOp36
 70
     1
102
RTVSPost2010Prop37
 90
       50
102
RTVSPost2010PropOp37
 70
     1
102
RTVSPost2010Prop38
140
0.0
102
RTVSPost2010PropOp38
 70
     1
102
RTVSPost2010Prop39
140
1.0
102
RTVSPost2010PropOp39
 70
     1
102
RTVSPost2010Prop40
 90
        0
102
RTVSPost2010PropOp40
 70
     1
102
RTVSPost2010Prop41ColorIndex
 90
       18
102
RTVSPost2010Prop41ColorRGB
 90
        0
102
RTVSPost2010PropOp41
 70
     1
102
RTVSPost2010Prop42
 90
       50
102
RTVSPost2010PropOp42
 70
     1
102
RTVSPost2010Prop43
 90
        3
102
RTVSPost2010PropOp43
 70
     1
102
RTVSPost2010Prop44ColorIndex
 90
        5
102
RTVSPost2010Prop44ColorRGB
 90
      255
102
RTVSPost2010PropOp44
 70
     1
102
RTVSPost2010Prop45
280
     0
102
RTVSPost2010PropOp45
 70
     1
102
RTVSPost2010Prop46
 90
       50
102
RTVSPost2010PropOp46
 70
     1
102
RTVSPost2010Prop47
 90
       50
102
RTVSPost2010PropOp47
 70
     1
102
RTVSPost2010Prop48
 90
       50
102
RTVSPost2010PropOp48
 70
     1
102
RTVSPost2010Prop49
280
     0
102
RTVSPost2010PropOp49
 70
     1
102
RTVSPost2010Prop50
 90
       50
102
RTVSPost2010PropOp50
 70
     1
102
RTVSPost2010Prop51ColorIndex
 90
      256
102
RTVSPost2010Prop51ColorRGB
 90
-16777216
102
RTVSPost2010PropOp51
 70
     0
102
RTVSPost2010Prop52
140
1.0
102
RTVSPost2010PropOp52
 70
     0
102
RTVSPost2010Prop53
 90
        2
102
RTVSPost2010PropOp53
 70
     1
102
RTVSPost2010Prop54
  1
strokes_ogs.tif
102
RTVSPost2010PropOp54
 70
     1
102
RTVSPost2010Prop55
280
     0
102
RTVSPost2010PropOp55
 70
     1
102
RTVSPost2010Prop56
140
1.0
102
RTVSPost2010PropOp56
 70
     1
102
RTVSPost2010Prop57
140
1.0
102
RTVSPost2010PropOp57
 70
     1
  0
XRECORD
  5
411
102
{ACAD_REACTORS
330
410
102
}
330
410
100
AcDbXrecord
280
     1
102
RTVSPropertyOp0
 70
     1
102
RTVSPropertyOp1
 70
     1
102
RTVSPropertyOp2
 70
     1
102
RTVSPropertyOp3
 70
     1
102
RTVSPropertyOp4
 70
     1
102
RTVSPropertyOp5
 70
     1
102
RTVSPropertyOp6
 70
     1
102
RTVSPropertyOp7
 70
     1
102
RTVSPropertyOp8
 70
     1
102
RTVSPropertyOp9
 70
     1
102
RTVSPropertyOp10
 70
     1
102
RTVSPropertyOp11
 70
     1
102
RTVSPropertyOp12
 70
     1
102
RTVSPropertyOp13
 70
     1
102
RTVSPropertyOp14
 70
     1
102
RTVSPropertyOp15
 70
     1
102
RTVSPropertyOp16
 70
     1
102
RTVSPropertyOp17
 70
     1
102
RTVSPropertyOp18
 70
     1
102
RTVSPropertyOp19
 70
     1
102
RTVSPropertyOp20
 70
     1
102
RTVSPropertyOp21
 70
     1
102
RTVSPropertyOp22
 70
     1
102
RTVSPropertyOp23
 70
     1
102
RTVSPropertyOp24
 70
     1
102
RTVSPropertyOp25
 70
     1
102
RTVSPropertyOp26
 70
     1
102
RTVSPropertyOp27
 70
     1
102
RTVSPropertyOp28
 70
     1
102
RTVSPropertyOp29
 70
     1
102
RTVSPropertyOp30
 70
     1
102
RTVSPropertyOp31
 70
     1
102
RTVSPropertyOp32
 70
     1
102
RTVSPropertyOp33
 70
     1
102
RTVSPropertyOp34
 70
     1
102
RTVSPropertyOp35
 70
     1
102
RTVSPropertyOp36
 70
     1
102
RTVSPropertyOp37
 70
     1
102
RTVSPropertyOp38
 70
     1
102
RTVSPropertyOp39
 70
     1
102
RTVSPropertyOp40
 70
     1
102
RTVSPropertyOp41
 70
     1
102
RTVSPropertyOp42
 70
     1
102
RTVSPropertyOp43
 70
     1
102
RTVSPropertyOp44
 70
     1
102
RTVSPropertyOp45
 70
     1
102
RTVSPropertyOp46
 70
     1
102
RTVSPropertyOp47
 70
     1
102
RTVSPropertyOp48
 70
     1
102
RTVSPropertyOp49
 70
     1
102
RTVSPropertyOp50
 70
     1
102
RTVSPropertyOp51
 70
     0
102
RTVSPropertyOp52
 70
     0
102
RTVSPropertyOp53
 70
     1
102
RTVSPropertyOp54
 70
     1
102
RTVSPropertyOp55
 70
     1
102
RTVSPropertyOp56
 70
     1
102
RTVSPropertyOp57
 70
     1
102
RTVSPost2010Prop28
280
     0
102
RTVSPost2010PropOp28
 70
     1
102
RTVSPost2010Prop29
280
     1
102
RTVSPost2010PropOp29
 70
     1
102
RTVSPost2010Prop30
280
     1
102
RTVSPost2010PropOp30
 70
     1
102
RTVSPost2010Prop31
280
     0
102
RTVSPost2010PropOp31
 70
     1
102
RTVSPost2010Prop32
280
     0
102
RTVSPost2010PropOp32
 70
     1
102
RTVSPost2010Prop33
280
     0
102
RTVSPost2010PropOp33
 70
     1
102
RTVSPost2010Prop34
280
     0
102
RTVSPost2010PropOp34
 70
     1
102
RTVSPost2010Prop35
280
     0
102
RTVSPost2010PropOp35
 70
     1
102
RTVSPost2010Prop36
280
     0
102
RTVSPost2010PropOp36
 70
     1
102
RTVSPost2010Prop37
 90
       50
102
RTVSPost2010PropOp37
 70
     1
102
RTVSPost2010Prop38
140
0.0
102
RTVSPost2010PropOp38
 70
     1
102
RTVSPost2010Prop39
140
1.0
102
RTVSPost2010PropOp39
 70
     1
102
RTVSPost2010Prop40
 90
        0
102
RTVSPost2010PropOp40
 70
     1
102
RTVSPost2010Prop41ColorIndex
 90
       18
102
RTVSPost2010Prop41ColorRGB
 90
        0
102
RTVSPost2010PropOp41
 70
     1
102
RTVSPost2010Prop42
 90
       50
102
RTVSPost2010PropOp42
 70
     1
102
RTVSPost2010Prop43
 90
        3
102
RTVSPost2010PropOp43
 70
     1
102
RTVSPost2010Prop44ColorIndex
 90
        5
102
RTVSPost2010Prop44ColorRGB
 90
      255
102
RTVSPost2010PropOp44
 70
     1
102
RTVSPost2010Prop45
280
     0
102
RTVSPost2010PropOp45
 70
     1
102
RTVSPost2010Prop46
 90
       50
102
RTVSPost2010PropOp46
 70
     1
102
RTVSPost2010Prop47
 90
       50
102
RTVSPost2010PropOp47
 70
     1
102
RTVSPost2010Prop48
 90
       50
102
RTVSPost2010PropOp48
 70
     1
102
RTVSPost2010Prop49
280
     0
102
RTVSPost2010PropOp49
 70
     1
102
RTVSPost2010Prop50
 90
       50
102
RTVSPost2010PropOp50
 70
     1
102
RTVSPost2010Prop51ColorIndex
 90
      256
102
RTVSPost2010Prop51ColorRGB
 90
-16777216
102
RTVSPost2010PropOp51
 70
     0
102
RTVSPost2010Prop52
140
1.0
102
RTVSPost2010PropOp52
 70
     0
102
RTVSPost2010Prop53
 90
        2
102
RTVSPost2010PropOp53
 70
     1
102
RTVSPost2010Prop54
  1
strokes_ogs.tif
102
RTVSPost2010PropOp54
 70
     1
102
RTVSPost2010Prop55
280
     0
102
RTVSPost2010PropOp55
 70
     1
102
RTVSPost2010Prop56
140
1.0
102
RTVSPost2010PropOp56
 70
     1
102
RTVSPost2010Prop57
140
1.0
102
RTVSPost2010PropOp57
 70
     1
  0
XRECORD
  5
40B
102
{ACAD_REACTORS
330
40A
102
}
330
40A
100
AcDbXrecord
280
     1
102
RTVSPropertyOp0
 70
     1
102
RTVSPropertyOp1
 70
     1
102
RTVSPropertyOp2
 70
     1
102
RTVSPropertyOp3
 70
     1
102
RTVSPropertyOp4
 70
     1
102
RTVSPropertyOp5
 70
     1
102
RTVSPropertyOp6
 70
     1
102
RTVSPropertyOp7
 70
     1
102
RTVSPropertyOp8
 70
     1
102
RTVSPropertyOp9
 70
     1
102
RTVSPropertyOp10
 70
     1
102
RTVSPropertyOp11
 70
     1
102
RTVSPropertyOp12
 70
     1
102
RTVSPropertyOp13
 70
     1
102
RTVSPropertyOp14
 70
     1
102
RTVSPropertyOp15
 70
     1
102
RTVSPropertyOp16
 70
     1
102
RTVSPropertyOp17
 70
     1
102
RTVSPropertyOp18
 70
     1
102
RTVSPropertyOp19
 70
     1
102
RTVSPropertyOp20
 70
     1
102
RTVSPropertyOp21
 70
     1
102
RTVSPropertyOp22
 70
     1
102
RTVSPropertyOp23
 70
     1
102
RTVSPropertyOp24
 70
     1
102
RTVSPropertyOp25
 70
     1
102
RTVSPropertyOp26
 70
     1
102
RTVSPropertyOp27
 70
     1
102
RTVSPropertyOp28
 70
     1
102
RTVSPropertyOp29
 70
     1
102
RTVSPropertyOp30
 70
     1
102
RTVSPropertyOp31
 70
     1
102
RTVSPropertyOp32
 70
     1
102
RTVSPropertyOp33
 70
     1
102
RTVSPropertyOp34
 70
     1
102
RTVSPropertyOp35
 70
     1
102
RTVSPropertyOp36
 70
     1
102
RTVSPropertyOp37
 70
     1
102
RTVSPropertyOp38
 70
     1
102
RTVSPropertyOp39
 70
     1
102
RTVSPropertyOp40
 70
     1
102
RTVSPropertyOp41
 70
     1
102
RTVSPropertyOp42
 70
     1
102
RTVSPropertyOp43
 70
     1
102
RTVSPropertyOp44
 70
     1
102
RTVSPropertyOp45
 70
     1
102
RTVSPropertyOp46
 70
     1
102
RTVSPropertyOp47
 70
     1
102
RTVSPropertyOp48
 70
     1
102
RTVSPropertyOp49
 70
     1
102
RTVSPropertyOp50
 70
     1
102
RTVSPropertyOp51
 70
     0
102
RTVSPropertyOp52
 70
     0
102
RTVSPropertyOp53
 70
     1
102
RTVSPropertyOp54
 70
     1
102
RTVSPropertyOp55
 70
     1
102
RTVSPropertyOp56
 70
     1
102
RTVSPropertyOp57
 70
     1
102
RTVSPost2010Prop28
280
     0
102
RTVSPost2010PropOp28
 70
     1
102
RTVSPost2010Prop29
280
     1
102
RTVSPost2010PropOp29
 70
     1
102
RTVSPost2010Prop30
280
     1
102
RTVSPost2010PropOp30
 70
     1
102
RTVSPost2010Prop31
280
     0
102
RTVSPost2010PropOp31
 70
     1
102
RTVSPost2010Prop32
280
     0
102
RTVSPost2010PropOp32
 70
     1
102
RTVSPost2010Prop33
280
     0
102
RTVSPost2010PropOp33
 70
     1
102
RTVSPost2010Prop34
280
     0
102
RTVSPost2010PropOp34
 70
     1
102
RTVSPost2010Prop35
280
     0
102
RTVSPost2010PropOp35
 70
     1
102
RTVSPost2010Prop36
280
     0
102
RTVSPost2010PropOp36
 70
     1
102
RTVSPost2010Prop37
 90
       50
102
RTVSPost2010PropOp37
 70
     1
102
RTVSPost2010Prop38
140
0.0
102
RTVSPost2010PropOp38
 70
     1
102
RTVSPost2010Prop39
140
1.0
102
RTVSPost2010PropOp39
 70
     1
102
RTVSPost2010Prop40
 90
        0
102
RTVSPost2010PropOp40
 70
     1
102
RTVSPost2010Prop41ColorIndex
 90
       18
102
RTVSPost2010Prop41ColorRGB
 90
        0
102
RTVSPost2010PropOp41
 70
     1
102
RTVSPost2010Prop42
 90
       50
102
RTVSPost2010PropOp42
 70
     1
102
RTVSPost2010Prop43
 90
        3
102
RTVSPost2010PropOp43
 70
     1
102
RTVSPost2010Prop44ColorIndex
 90
        5
102
RTVSPost2010Prop44ColorRGB
 90
      255
102
RTVSPost2010PropOp44
 70
     1
102
RTVSPost2010Prop45
280
     0
102
RTVSPost2010PropOp45
 70
     1
102
RTVSPost2010Prop46
 90
       50
102
RTVSPost2010PropOp46
 70
     1
102
RTVSPost2010Prop47
 90
       50
102
RTVSPost2010PropOp47
 70
     1
102
RTVSPost2010Prop48
 90
       50
102
RTVSPost2010PropOp48
 70
     1
102
RTVSPost2010Prop49
280
     0
102
RTVSPost2010PropOp49
 70
     1
102
RTVSPost2010Prop50
 90
       50
102
RTVSPost2010PropOp50
 70
     1
102
RTVSPost2010Prop51ColorIndex
 90
      256
102
RTVSPost2010Prop51ColorRGB
 90
-16777216
102
RTVSPost2010PropOp51
 70
     0
102
RTVSPost2010Prop52
140
1.0
102
RTVSPost2010PropOp52
 70
     0
102
RTVSPost2010Prop53
 90
        2
102
RTVSPost2010PropOp53
 70
     1
102
RTVSPost2010Prop54
  1
strokes_ogs.tif
102
RTVSPost2010PropOp54
 70
     1
102
RTVSPost2010Prop55
280
     0
102
RTVSPost2010PropOp55
 70
     1
102
RTVSPost2010Prop56
140
1.0
102
RTVSPost2010PropOp56
 70
     1
102
RTVSPost2010Prop57
140
1.0
102
RTVSPost2010PropOp57
 70
     1
  0
XRECORD
  5
40D
102
{ACAD_REACTORS
330
40C
102
}
330
40C
100
AcDbXrecord
280
     1
102
RTVSPropertyOp0
 70
     1
102
RTVSPropertyOp1
 70
     1
102
RTVSPropertyOp2
 70
     1
102
RTVSPropertyOp3
 70
     1
102
RTVSPropertyOp4
 70
     1
102
RTVSPropertyOp5
 70
     1
102
RTVSPropertyOp6
 70
     1
102
RTVSPropertyOp7
 70
     1
102
RTVSPropertyOp8
 70
     1
102
RTVSPropertyOp9
 70
     1
102
RTVSPropertyOp10
 70
     1
102
RTVSPropertyOp11
 70
     1
102
RTVSPropertyOp12
 70
     1
102
RTVSPropertyOp13
 70
     1
102
RTVSPropertyOp14
 70
     1
102
RTVSPropertyOp15
 70
     1
102
RTVSPropertyOp16
 70
     1
102
RTVSPropertyOp17
 70
     1
102
RTVSPropertyOp18
 70
     1
102
RTVSPropertyOp19
 70
     1
102
RTVSPropertyOp20
 70
     1
102
RTVSPropertyOp21
 70
     1
102
RTVSPropertyOp22
 70
     1
102
RTVSPropertyOp23
 70
     1
102
RTVSPropertyOp24
 70
     1
102
RTVSPropertyOp25
 70
     1
102
RTVSPropertyOp26
 70
     1
102
RTVSPropertyOp27
 70
     1
102
RTVSPropertyOp28
 70
     1
102
RTVSPropertyOp29
 70
     1
102
RTVSPropertyOp30
 70
     1
102
RTVSPropertyOp31
 70
     1
102
RTVSPropertyOp32
 70
     1
102
RTVSPropertyOp33
 70
     1
102
RTVSPropertyOp34
 70
     1
102
RTVSPropertyOp35
 70
     1
102
RTVSPropertyOp36
 70
     1
102
RTVSPropertyOp37
 70
     1
102
RTVSPropertyOp38
 70
     1
102
RTVSPropertyOp39
 70
     1
102
RTVSPropertyOp40
 70
     1
102
RTVSPropertyOp41
 70
     1
102
RTVSPropertyOp42
 70
     1
102
RTVSPropertyOp43
 70
     1
102
RTVSPropertyOp44
 70
     1
102
RTVSPropertyOp45
 70
     1
102
RTVSPropertyOp46
 70
     1
102
RTVSPropertyOp47
 70
     1
102
RTVSPropertyOp48
 70
     1
102
RTVSPropertyOp49
 70
     1
102
RTVSPropertyOp50
 70
     1
102
RTVSPropertyOp51
 70
     0
102
RTVSPropertyOp52
 70
     0
102
RTVSPropertyOp53
 70
     1
102
RTVSPropertyOp54
 70
     1
102
RTVSPropertyOp55
 70
     1
102
RTVSPropertyOp56
 70
     1
102
RTVSPropertyOp57
 70
     1
102
RTVSPost2010Prop28
280
     0
102
RTVSPost2010PropOp28
 70
     1
102
RTVSPost2010Prop29
280
     1
102
RTVSPost2010PropOp29
 70
     1
102
RTVSPost2010Prop30
280
     1
102
RTVSPost2010PropOp30
 70
     1
102
RTVSPost2010Prop31
280
     0
102
RTVSPost2010PropOp31
 70
     1
102
RTVSPost2010Prop32
280
     0
102
RTVSPost2010PropOp32
 70
     1
102
RTVSPost2010Prop33
280
     0
102
RTVSPost2010PropOp33
 70
     1
102
RTVSPost2010Prop34
280
     0
102
RTVSPost2010PropOp34
 70
     1
102
RTVSPost2010Prop35
280
     0
102
RTVSPost2010PropOp35
 70
     1
102
RTVSPost2010Prop36
280
     0
102
RTVSPost2010PropOp36
 70
     1
102
RTVSPost2010Prop37
 90
       50
102
RTVSPost2010PropOp37
 70
     1
102
RTVSPost2010Prop38
140
0.0
102
RTVSPost2010PropOp38
 70
     1
102
RTVSPost2010Prop39
140
1.0
102
RTVSPost2010PropOp39
 70
     1
102
RTVSPost2010Prop40
 90
        0
102
RTVSPost2010PropOp40
 70
     1
102
RTVSPost2010Prop41ColorIndex
 90
       18
102
RTVSPost2010Prop41ColorRGB
 90
        0
102
RTVSPost2010PropOp41
 70
     1
102
RTVSPost2010Prop42
 90
       50
102
RTVSPost2010PropOp42
 70
     1
102
RTVSPost2010Prop43
 90
        3
102
RTVSPost2010PropOp43
 70
     1
102
RTVSPost2010Prop44ColorIndex
 90
        5
102
RTVSPost2010Prop44ColorRGB
 90
      255
102
RTVSPost2010PropOp44
 70
     1
102
RTVSPost2010Prop45
280
     0
102
RTVSPost2010PropOp45
 70
     1
102
RTVSPost2010Prop46
 90
       50
102
RTVSPost2010PropOp46
 70
     1
102
RTVSPost2010Prop47
 90
       50
102
RTVSPost2010PropOp47
 70
     1
102
RTVSPost2010Prop48
 90
       50
102
RTVSPost2010PropOp48
 70
     1
102
RTVSPost2010Prop49
280
     0
102
RTVSPost2010PropOp49
 70
     1
102
RTVSPost2010Prop50
 90
       50
102
RTVSPost2010PropOp50
 70
     1
102
RTVSPost2010Prop51ColorIndex
 90
      256
102
RTVSPost2010Prop51ColorRGB
 90
-16777216
102
RTVSPost2010PropOp51
 70
     0
102
RTVSPost2010Prop52
140
1.0
102
RTVSPost2010PropOp52
 70
     0
102
RTVSPost2010Prop53
 90
        2
102
RTVSPost2010PropOp53
 70
     1
102
RTVSPost2010Prop54
  1
strokes_ogs.tif
102
RTVSPost2010PropOp54
 70
     1
102
RTVSPost2010Prop55
280
     0
102
RTVSPost2010PropOp55
 70
     1
102
RTVSPost2010Prop56
140
1.0
102
RTVSPost2010PropOp56
 70
     1
102
RTVSPost2010Prop57
140
1.0
102
RTVSPost2010PropOp57
 70
     1
  0
XRECORD
  5
3FD
102
{ACAD_REACTORS
330
3FC
102
}
330
3FC
100
AcDbXrecord
280
     1
102
RTVSPropertyOp0
 70
     1
102
RTVSPropertyOp1
 70
     1
102
RTVSPropertyOp2
 70
     1
102
RTVSPropertyOp3
 70
     1
102
RTVSPropertyOp4
 70
     1
102
RTVSPropertyOp5
 70
     1
102
RTVSPropertyOp6
 70
     1
102
RTVSPropertyOp7
 70
     1
102
RTVSPropertyOp8
 70
     1
102
RTVSPropertyOp9
 70
     1
102
RTVSPropertyOp10
 70
     1
102
RTVSPropertyOp11
 70
     1
102
RTVSPropertyOp12
 70
     1
102
RTVSPropertyOp13
 70
     1
102
RTVSPropertyOp14
 70
     1
102
RTVSPropertyOp15
 70
     1
102
RTVSPropertyOp16
 70
     1
102
RTVSPropertyOp17
 70
     1
102
RTVSPropertyOp18
 70
     1
102
RTVSPropertyOp19
 70
     1
102
RTVSPropertyOp20
 70
     1
102
RTVSPropertyOp21
 70
     1
102
RTVSPropertyOp22
 70
     1
102
RTVSPropertyOp23
 70
     1
102
RTVSPropertyOp24
 70
     1
102
RTVSPropertyOp25
 70
     1
102
RTVSPropertyOp26
 70
     1
102
RTVSPropertyOp27
 70
     1
102
RTVSPropertyOp28
 70
     1
102
RTVSPropertyOp29
 70
     1
102
RTVSPropertyOp30
 70
     1
102
RTVSPropertyOp31
 70
     1
102
RTVSPropertyOp32
 70
     1
102
RTVSPropertyOp33
 70
     1
102
RTVSPropertyOp34
 70
     1
102
RTVSPropertyOp35
 70
     1
102
RTVSPropertyOp36
 70
     1
102
RTVSPropertyOp37
 70
     1
102
RTVSPropertyOp38
 70
     1
102
RTVSPropertyOp39
 70
     1
102
RTVSPropertyOp40
 70
     1
102
RTVSPropertyOp41
 70
     1
102
RTVSPropertyOp42
 70
     1
102
RTVSPropertyOp43
 70
     1
102
RTVSPropertyOp44
 70
     1
102
RTVSPropertyOp45
 70
     1
102
RTVSPropertyOp46
 70
     1
102
RTVSPropertyOp47
 70
     1
102
RTVSPropertyOp48
 70
     1
102
RTVSPropertyOp49
 70
     1
102
RTVSPropertyOp50
 70
     1
102
RTVSPropertyOp51
 70
     0
102
RTVSPropertyOp52
 70
     0
102
RTVSPropertyOp53
 70
     1
102
RTVSPropertyOp54
 70
     1
102
RTVSPropertyOp55
 70
     1
102
RTVSPropertyOp56
 70
     1
102
RTVSPropertyOp57
 70
     1
102
RTVSPost2010Prop28
280
     0
102
RTVSPost2010PropOp28
 70
     1
102
RTVSPost2010Prop29
280
     1
102
RTVSPost2010PropOp29
 70
     1
102
RTVSPost2010Prop30
280
     1
102
RTVSPost2010PropOp30
 70
     1
102
RTVSPost2010Prop31
280
     0
102
RTVSPost2010PropOp31
 70
     1
102
RTVSPost2010Prop32
280
     0
102
RTVSPost2010PropOp32
 70
     1
102
RTVSPost2010Prop33
280
     0
102
RTVSPost2010PropOp33
 70
     1
102
RTVSPost2010Prop34
280
     0
102
RTVSPost2010PropOp34
 70
     1
102
RTVSPost2010Prop35
280
     0
102
RTVSPost2010PropOp35
 70
     1
102
RTVSPost2010Prop36
280
     0
102
RTVSPost2010PropOp36
 70
     1
102
RTVSPost2010Prop37
 90
       50
102
RTVSPost2010PropOp37
 70
     1
102
RTVSPost2010Prop38
140
0.0
102
RTVSPost2010PropOp38
 70
     1
102
RTVSPost2010Prop39
140
1.0
102
RTVSPost2010PropOp39
 70
     1
102
RTVSPost2010Prop40
 90
        0
102
RTVSPost2010PropOp40
 70
     1
102
RTVSPost2010Prop41ColorIndex
 90
       18
102
RTVSPost2010Prop41ColorRGB
 90
        0
102
RTVSPost2010PropOp41
 70
     1
102
RTVSPost2010Prop42
 90
       50
102
RTVSPost2010PropOp42
 70
     1
102
RTVSPost2010Prop43
 90
        3
102
RTVSPost2010PropOp43
 70
     1
102
RTVSPost2010Prop44ColorIndex
 90
        5
102
RTVSPost2010Prop44ColorRGB
 90
      255
102
RTVSPost2010PropOp44
 70
     1
102
RTVSPost2010Prop45
280
     0
102
RTVSPost2010PropOp45
 70
     1
102
RTVSPost2010Prop46
 90
       50
102
RTVSPost2010PropOp46
 70
     1
102
RTVSPost2010Prop47
 90
       50
102
RTVSPost2010PropOp47
 70
     1
102
RTVSPost2010Prop48
 90
       50
102
RTVSPost2010PropOp48
 70
     1
102
RTVSPost2010Prop49
280
     0
102
RTVSPost2010PropOp49
 70
     1
102
RTVSPost2010Prop50
 90
       50
102
RTVSPost2010PropOp50
 70
     1
102
RTVSPost2010Prop51ColorIndex
 90
      256
102
RTVSPost2010Prop51ColorRGB
 90
-16777216
102
RTVSPost2010PropOp51
 70
     0
102
RTVSPost2010Prop52
140
1.0
102
RTVSPost2010PropOp52
 70
     0
102
RTVSPost2010Prop53
 90
        2
102
RTVSPost2010PropOp53
 70
     1
102
RTVSPost2010Prop54
  1
strokes_ogs.tif
102
RTVSPost2010PropOp54
 70
     1
102
RTVSPost2010Prop55
280
     0
102
RTVSPost2010PropOp55
 70
     1
102
RTVSPost2010Prop56
140
1.0
102
RTVSPost2010PropOp56
 70
     1
102
RTVSPost2010Prop57
140
1.0
102
RTVSPost2010PropOp57
 70
     1
  0
XRECORD
  5
3EF
102
{ACAD_REACTORS
330
3EE
102
}
330
3EE
100
AcDbXrecord
280
     1
102
RTVSPropertyOp0
 70
     1
102
RTVSPropertyOp1
 70
     1
102
RTVSPropertyOp2
 70
     1
102
RTVSPropertyOp3
 70
     1
102
RTVSPropertyOp4
 70
     1
102
RTVSPropertyOp5
 70
     1
102
RTVSPropertyOp6
 70
     1
102
RTVSPropertyOp7
 70
     1
102
RTVSPropertyOp8
 70
     1
102
RTVSPropertyOp9
 70
     1
102
RTVSPropertyOp10
 70
     1
102
RTVSPropertyOp11
 70
     1
102
RTVSPropertyOp12
 70
     1
102
RTVSPropertyOp13
 70
     1
102
RTVSPropertyOp14
 70
     1
102
RTVSPropertyOp15
 70
     1
102
RTVSPropertyOp16
 70
     1
102
RTVSPropertyOp17
 70
     1
102
RTVSPropertyOp18
 70
     1
102
RTVSPropertyOp19
 70
     1
102
RTVSPropertyOp20
 70
     1
102
RTVSPropertyOp21
 70
     1
102
RTVSPropertyOp22
 70
     1
102
RTVSPropertyOp23
 70
     1
102
RTVSPropertyOp24
 70
     1
102
RTVSPropertyOp25
 70
     1
102
RTVSPropertyOp26
 70
     1
102
RTVSPropertyOp27
 70
     1
102
RTVSPropertyOp28
 70
     1
102
RTVSPropertyOp29
 70
     1
102
RTVSPropertyOp30
 70
     1
102
RTVSPropertyOp31
 70
     1
102
RTVSPropertyOp32
 70
     1
102
RTVSPropertyOp33
 70
     1
102
RTVSPropertyOp34
 70
     1
102
RTVSPropertyOp35
 70
     1
102
RTVSPropertyOp36
 70
     1
102
RTVSPropertyOp37
 70
     1
102
RTVSPropertyOp38
 70
     1
102
RTVSPropertyOp39
 70
     1
102
RTVSPropertyOp40
 70
     1
102
RTVSPropertyOp41
 70
     1
102
RTVSPropertyOp42
 70
     1
102
RTVSPropertyOp43
 70
     1
102
RTVSPropertyOp44
 70
     1
102
RTVSPropertyOp45
 70
     1
102
RTVSPropertyOp46
 70
     1
102
RTVSPropertyOp47
 70
     1
102
RTVSPropertyOp48
 70
     1
102
RTVSPropertyOp49
 70
     1
102
RTVSPropertyOp50
 70
     1
102
RTVSPropertyOp51
 70
     0
102
RTVSPropertyOp52
 70
     0
102
RTVSPropertyOp53
 70
     1
102
RTVSPropertyOp54
 70
     1
102
RTVSPropertyOp55
 70
     1
102
RTVSPropertyOp56
 70
     1
102
RTVSPropertyOp57
 70
     1
102
RTVSPost2010Prop28
280
     0
102
RTVSPost2010PropOp28
 70
     1
102
RTVSPost2010Prop29
280
     1
102
RTVSPost2010PropOp29
 70
     1
102
RTVSPost2010Prop30
280
     1
102
RTVSPost2010PropOp30
 70
     1
102
RTVSPost2010Prop31
280
     0
102
RTVSPost2010PropOp31
 70
     1
102
RTVSPost2010Prop32
280
     0
102
RTVSPost2010PropOp32
 70
     1
102
RTVSPost2010Prop33
280
     0
102
RTVSPost2010PropOp33
 70
     1
102
RTVSPost2010Prop34
280
     0
102
RTVSPost2010PropOp34
 70
     1
102
RTVSPost2010Prop35
280
     0
102
RTVSPost2010PropOp35
 70
     1
102
RTVSPost2010Prop36
280
     0
102
RTVSPost2010PropOp36
 70
     1
102
RTVSPost2010Prop37
 90
       50
102
RTVSPost2010PropOp37
 70
     1
102
RTVSPost2010Prop38
140
0.0
102
RTVSPost2010PropOp38
 70
     1
102
RTVSPost2010Prop39
140
1.0
102
RTVSPost2010PropOp39
 70
     1
102
RTVSPost2010Prop40
 90
        0
102
RTVSPost2010PropOp40
 70
     1
102
RTVSPost2010Prop41ColorIndex
 90
       18
102
RTVSPost2010Prop41ColorRGB
 90
        0
102
RTVSPost2010PropOp41
 70
     1
102
RTVSPost2010Prop42
 90
       50
102
RTVSPost2010PropOp42
 70
     1
102
RTVSPost2010Prop43
 90
        3
102
RTVSPost2010PropOp43
 70
     1
102
RTVSPost2010Prop44ColorIndex
 90
        5
102
RTVSPost2010Prop44ColorRGB
 90
      255
102
RTVSPost2010PropOp44
 70
     1
102
RTVSPost2010Prop45
280
     0
102
RTVSPost2010PropOp45
 70
     1
102
RTVSPost2010Prop46
 90
       50
102
RTVSPost2010PropOp46
 70
     1
102
RTVSPost2010Prop47
 90
       50
102
RTVSPost2010PropOp47
 70
     1
102
RTVSPost2010Prop48
 90
       50
102
RTVSPost2010PropOp48
 70
     1
102
RTVSPost2010Prop49
280
     0
102
RTVSPost2010PropOp49
 70
     1
102
RTVSPost2010Prop50
 90
       50
102
RTVSPost2010PropOp50
 70
     1
102
RTVSPost2010Prop51ColorIndex
 90
      256
102
RTVSPost2010Prop51ColorRGB
 90
-16777216
102
RTVSPost2010PropOp51
 70
     0
102
RTVSPost2010Prop52
140
1.0
102
RTVSPost2010PropOp52
 70
     0
102
RTVSPost2010Prop53
 90
        2
102
RTVSPost2010PropOp53
 70
     1
102
RTVSPost2010Prop54
  1
strokes_ogs.tif
102
RTVSPost2010PropOp54
 70
     1
102
RTVSPost2010Prop55
280
     0
102
RTVSPost2010PropOp55
 70
     1
102
RTVSPost2010Prop56
140
1.0
102
RTVSPost2010PropOp56
 70
     1
102
RTVSPost2010Prop57
140
1.0
102
RTVSPost2010PropOp57
 70
     1
  0
XRECORD
  5
40F
102
{ACAD_REACTORS
330
40E
102
}
330
40E
100
AcDbXrecord
280
     1
102
RTVSPropertyOp0
 70
     1
102
RTVSPropertyOp1
 70
     1
102
RTVSPropertyOp2
 70
     1
102
RTVSPropertyOp3
 70
     1
102
RTVSPropertyOp4
 70
     1
102
RTVSPropertyOp5
 70
     1
102
RTVSPropertyOp6
 70
     1
102
RTVSPropertyOp7
 70
     1
102
RTVSPropertyOp8
 70
     1
102
RTVSPropertyOp9
 70
     1
102
RTVSPropertyOp10
 70
     1
102
RTVSPropertyOp11
 70
     1
102
RTVSPropertyOp12
 70
     1
102
RTVSPropertyOp13
 70
     1
102
RTVSPropertyOp14
 70
     1
102
RTVSPropertyOp15
 70
     1
102
RTVSPropertyOp16
 70
     1
102
RTVSPropertyOp17
 70
     1
102
RTVSPropertyOp18
 70
     1
102
RTVSPropertyOp19
 70
     1
102
RTVSPropertyOp20
 70
     1
102
RTVSPropertyOp21
 70
     1
102
RTVSPropertyOp22
 70
     1
102
RTVSPropertyOp23
 70
     1
102
RTVSPropertyOp24
 70
     1
102
RTVSPropertyOp25
 70
     1
102
RTVSPropertyOp26
 70
     1
102
RTVSPropertyOp27
 70
     1
102
RTVSPropertyOp28
 70
     1
102
RTVSPropertyOp29
 70
     1
102
RTVSPropertyOp30
 70
     1
102
RTVSPropertyOp31
 70
     1
102
RTVSPropertyOp32
 70
     1
102
RTVSPropertyOp33
 70
     1
102
RTVSPropertyOp34
 70
     1
102
RTVSPropertyOp35
 70
     1
102
RTVSPropertyOp36
 70
     1
102
RTVSPropertyOp37
 70
     1
102
RTVSPropertyOp38
 70
     1
102
RTVSPropertyOp39
 70
     1
102
RTVSPropertyOp40
 70
     1
102
RTVSPropertyOp41
 70
     1
102
RTVSPropertyOp42
 70
     1
102
RTVSPropertyOp43
 70
     1
102
RTVSPropertyOp44
 70
     1
102
RTVSPropertyOp45
 70
     1
102
RTVSPropertyOp46
 70
     1
102
RTVSPropertyOp47
 70
     1
102
RTVSPropertyOp48
 70
     1
102
RTVSPropertyOp49
 70
     1
102
RTVSPropertyOp50
 70
     1
102
RTVSPropertyOp51
 70
     0
102
RTVSPropertyOp52
 70
     0
102
RTVSPropertyOp53
 70
     1
102
RTVSPropertyOp54
 70
     1
102
RTVSPropertyOp55
 70
     1
102
RTVSPropertyOp56
 70
     1
102
RTVSPropertyOp57
 70
     1
102
RTVSPost2010Prop28
280
     0
102
RTVSPost2010PropOp28
 70
     1
102
RTVSPost2010Prop29
280
     1
102
RTVSPost2010PropOp29
 70
     1
102
RTVSPost2010Prop30
280
     1
102
RTVSPost2010PropOp30
 70
     1
102
RTVSPost2010Prop31
280
     0
102
RTVSPost2010PropOp31
 70
     1
102
RTVSPost2010Prop32
280
     0
102
RTVSPost2010PropOp32
 70
     1
102
RTVSPost2010Prop33
280
     0
102
RTVSPost2010PropOp33
 70
     1
102
RTVSPost2010Prop34
280
     0
102
RTVSPost2010PropOp34
 70
     1
102
RTVSPost2010Prop35
280
     0
102
RTVSPost2010PropOp35
 70
     1
102
RTVSPost2010Prop36
280
     0
102
RTVSPost2010PropOp36
 70
     1
102
RTVSPost2010Prop37
 90
       50
102
RTVSPost2010PropOp37
 70
     1
102
RTVSPost2010Prop38
140
0.0
102
RTVSPost2010PropOp38
 70
     1
102
RTVSPost2010Prop39
140
1.0
102
RTVSPost2010PropOp39
 70
     1
102
RTVSPost2010Prop40
 90
        0
102
RTVSPost2010PropOp40
 70
     1
102
RTVSPost2010Prop41ColorIndex
 90
       18
102
RTVSPost2010Prop41ColorRGB
 90
        0
102
RTVSPost2010PropOp41
 70
     1
102
RTVSPost2010Prop42
 90
       50
102
RTVSPost2010PropOp42
 70
     1
102
RTVSPost2010Prop43
 90
        3
102
RTVSPost2010PropOp43
 70
     1
102
RTVSPost2010Prop44ColorIndex
 90
        5
102
RTVSPost2010Prop44ColorRGB
 90
      255
102
RTVSPost2010PropOp44
 70
     1
102
RTVSPost2010Prop45
280
     0
102
RTVSPost2010PropOp45
 70
     1
102
RTVSPost2010Prop46
 90
       50
102
RTVSPost2010PropOp46
 70
     1
102
RTVSPost2010Prop47
 90
       50
102
RTVSPost2010PropOp47
 70
     1
102
RTVSPost2010Prop48
 90
       50
102
RTVSPost2010PropOp48
 70
     1
102
RTVSPost2010Prop49
280
     0
102
RTVSPost2010PropOp49
 70
     1
102
RTVSPost2010Prop50
 90
       50
102
RTVSPost2010PropOp50
 70
     1
102
RTVSPost2010Prop51ColorIndex
 90
      256
102
RTVSPost2010Prop51ColorRGB
 90
-16777216
102
RTVSPost2010PropOp51
 70
     0
102
RTVSPost2010Prop52
140
1.0
102
RTVSPost2010PropOp52
 70
     0
102
RTVSPost2010Prop53
 90
        2
102
RTVSPost2010PropOp53
 70
     1
102
RTVSPost2010Prop54
  1
strokes_ogs.tif
102
RTVSPost2010PropOp54
 70
     1
102
RTVSPost2010Prop55
280
     0
102
RTVSPost2010PropOp55
 70
     1
102
RTVSPost2010Prop56
140
1.0
102
RTVSPost2010PropOp56
 70
     1
102
RTVSPost2010Prop57
140
1.0
102
RTVSPost2010PropOp57
 70
     1
  0
ENDSEC
  0
EOF
